Norther - Frozen Sky Chords & Tabs

 

Frozen Sky Chords & Tabs

Norther Chords & Tabs

Version: 1 Type: Tab 0 ratings
1 star 2 stars 3 stars 4 stars 5 stars
comments

Frozen Sky Tab

e ------------|---------------|
b ------------|---------------|
g ------------|---------------|
d ------------|-----2~~~------|x4
a ---2-2-2----|-----2~~~------|
e ---0-0-0----|-----0~~~------|

e -------------------------|------------------------------------|
b -------------------------|------------------------------------|
g --------9/12\11----------|--------4-----4/5\4--------2--------|
d ------9------------4--7--|-----2-----2------------4------5----|x3
a ----7------------5-------|--0-------------------5----------5--|
e --0----------------------|-----------------------------3------|
[ Tab from: http://www.guitartabs.cc/tabs/n/norther/frozen_sky_tab.html ]
e -------------------------|------------------------------------------|
b -------------------------|------------------------------------------|
g --------9/12\11----------|--------4-----4/5\4-----------------------|
d ------9------------4--7--|-----2-----2—--------5---4--2-------------|
a ----7------------5-------|--0----------------------------3--2---0~--|
e --0----------------------|------------------------------------------|

e --------------------|
b --------------------|
g --------------------|
d --------------------|
a ----2-2-x-x-2-------|
e ----0-0-x-x-0-------|

e ------------------------------------------------------------------
b ------------------------------------------------------------------
g ------------------------------------------------------------------
d --7--5-----------------7---------------5--3----------3--7---------x2
a --5--3-----------------5---------------5--3----------3--5---------
e ---------------------------------------3--1----------1------------

e ---------------------|
b ---------------------|
g ---------------------|
d --7------------------|
a --5--2---------------|
e -----0---------------|


That’s it. Hope you enjoy it, please rate :)
Comments