Norma Jean - Vertebraille Chords & Tabs

 

Vertebraille Chords & Tabs

Norma Jean Chords & Tabs

Version: 1 Type: Tab

Vertebraille Tab

tHIS IS A GREAT SONG AND ITS NOT THAT HARD BUT IM TELLING YOU ..USE A LOT OF DISTORTION USE PEDAL!!!


INTRO
GUITAR 1
with distortion pedal if you have one

E|-12--9----------0--7--------------|
B|--------12--9---------------------|
G|----------------------------------|
D|----------------------------------|< 2 TIMES!!
A|----------------------------------|
D|----------------------------------|
the intro might be wrong but its kind of hard but the rest is correct

guitar 2
*note: play this with guitar 1
E|----------------------------------|
B|----------------------------------|
G|----------------------------------|
D|0-2--0-2-3-2-0-2------------------| <5TIMES!!!
A|0-2--0-2-3-2-0-2------------------|
D|0-2--0-2-3-2-0-2------------------|
[ Tab from: http://www.guitartabs.cc/tabs/n/norma_jean/vertebraille_tab.html ]
E|----------------------------------|
B|----------------------------------|
G|----------------------------------|
D|----------------------------------|<9TIMES!!!
A|4---------------------------------|
D|--1-2-1---------------------------|
GUITAR ONE KEEPS PLAYING THIS AND GUITAR TWO PLAYS THE FOLLOWING


GUITAR 2
E|----------------------------------|
B|----------------------------------|
G|----------------------------------|<4TIMES!!
D|3-2-0-2-3-2-0-2-0-2-3-------------|
A|3-2-0-2-3-2-0-2-0-2-3-------------|
D|3-2-0-2-3-2-0-2-0-2-3-------------|

E|-------------------|
B|-------------------|
G|-------------------|
D|4-0-1-0--4-0-1--0--|
A|4-0-1-0--4-0-1--0--|
D|4-0-1-0--4-0-1--0--|

GUYS IM REALLY TIRED OF BEING LISTENING AND TABING FOR HOUR SO I WILL CONTINUE ABITHER DAY !!!