Norma Jean - Memphis Will Be Laid To Waste Chords & Tabs

 

Memphis Will Be Laid To Waste Chords & Tabs

Norma Jean Chords & Tabs

Version: 1 Type: Tab 0 ratings
1 star 2 stars 3 stars 4 stars 5 stars
comments

Memphis Will Be Laid To Waste Tab

Well im sitting in class listening to these guys on purevolume, uhm this covers about 
of the song (the stuff i dont have in here sux anyways haha) enjoy!
Eb------------------------------------------------------------------|
Bb------------------------------------------------------------------|
Gb------------------------------------------------------------------|
Db--66666666666666--------------------------------------------------|
Ab--66666666666666--------------------------------------------------|
Db--66666666666666--------------------------------------------------|

Eb--------55555555--44-------------------------------------|
Bb--------88888888--77-------------------------------------|
Gb---------------------------------------------------------|
Db-000-----------------------------------------------------|
Ab-000-----------------------------------------------------|
Db-000-----------------------------------------------------|
 pm---| pm ---| -------------------------------------------|
[ Tab from: http://www.guitartabs.cc/tabs/n/norma_jean/memphis_will_be_laid_to_waste_tab.html ]
               CLEAN with reverb, echo?
Eb-------------------------------------------------------|
Bb-------------------------------------------------------|
Gb-------------------------------------------------------|
Db-------------------------------------------------------|
Ab---0---0--0--0---0---0---0--0----0---0-----------------|
Db-4---4---4--4--4---4---3---3---0---0-------------------|

Eb----------------------------------------------------------------|
Bb----------------------------------------------------------------|
Gb----777--7----------7-------------------------------------------|
Db----xxx--x------------------------------------------------------|
Ab----999--9-------9-------7--------------------------------------|
Db----------------------------------------------------------------|

Eb-----------------------------------------------------------------|
Bb-----------------------------------------------------------------|
Gb-----------------------------------------------------------------|
Db--000--00--00----------------------------------------------------|
Ab--000--00--00----------------------------------------------------|
Db--000--00--00----------------------------------------------------|
  pm---------------------------------------------------------------|

the rest is just repeditive, and thats basicly all of it dkjedi7@aol.com for any questions
Comments