Norma Jean - Liarsenic Chords & Tabs

 

Liarsenic Chords & Tabs

Norma Jean Chords & Tabs

Version: 1 Type: Tab 0 ratings
1 star 2 stars 3 stars 4 stars 5 stars
comments

Liarsenic Tab

Band: Norma Jean
Song: Liarsenic
Album: O God the Aftermath
Tabber: Mike Angelini
Tuning: Drop D flat

VERSE
Guitar 1
eb---------|
bb---------|
gb---------|
db---------|
ab----1/9--|
db----1/9--| do that a bunch of times, its kinda hard to get the rhythm down but just 
to the song and you'll get it

Guitar 2
eb-------------|
bb----11--11\--|
gb----14--14\--|
db-------------|
ab-------------|
db-------------|

CHORUS
Both Guitars
eb------------------------|
bb------------------------|
gb------------------------|
db------------------------|
ab----1-0--3-0------------|
db----1-0--3-0--1-0-3-1-0-|

POST CHORUS
Both Guitars
part 1
eb----------------------------------|
bb----------------------------------|
gb----------------------------------|
db----------10p0-8p0-10p0-8p0-10p0--|
ab----8880--------------------------|
db----8880--------------------------|

part 2
eb-------------------------|
bb-------------------------|
gb----------7777777777777--|
db----------xxxxxxxxxxxxx--|
ab----8880--5555555555555--|
db----8880-----------------|

do the part 1 again and then do this:
[ Tab from: http://www.guitartabs.cc/tabs/n/norma_jean/liarsenic_tab.html ]
eb------------------------|
bb------------------------|
gb------------------------|
db------------------------|
ab----8880--555555553333--|
db----8880--555555553333--|

INTERLUDE
Guitar 1

eb-----------------|
bb-----------------|
gb----77--77--7777-|
db----xx--xx--xxxx-|
ab----55--55--5555-|
db-----------------|

Guitar 2

eb-----------------------------|
bb-----------------------------|
gb-----------------------------|
db-----------------------------|
ab-----------------------------|
db----9\--1-0--3-0--1-0-3-1-0--|

do verse again with double picking open d in between the slides

do chorus again

do post chorus again

BRIDGE
Guitar 1

eb---------------------------------------|
bb---------------------------------------|
gb---------------------------------------|
db---------------------------------------|
ab----000000005555555533333333388888888--|
db----000000005555555533333333388888888--|

Guitar 2

eb--------------------------------------------------------------|
bb--------------------------------------------------------------|
gb----10101010101010109999999910101010101010101414141414141414--|
db----xxxxxxxxxxxxxxxxxxxxxxxxxxxxxxxxxxxxxxxxxxxxxxxxxxxxxxxx--|
ab----8 8 8 8 8 8 8 8 777777778 8 8 8 8 8 8 8 1212121212121212--|
db--------------------------------------------------------------|
Comments