Norma Jean - Face Face Chords & Tabs

 

Face Face Chords & Tabs

Norma Jean Chords & Tabs

Version: 1 Type: Tab 0 ratings
1 star 2 stars 3 stars 4 stars 5 stars
comments

Face Face Tab

Norma Jean
"Face: Face"
Tabbed by Nic (NewNoise)

Drop C# (C#G#C#F#A#D#)

 .   - palm mute
(x8) - repeat note/chord 8 times
 x   - mute w/ fret hand
 p   - pull off
 h   - hammer on


INTRO (x2)
 Guitar I
|--------------------------------------------------|
|-19(x3)--18-19-18--19(x3)--18-19-18-19-18-19-18---|
|-22------22-22-22--22------22-22-22-22-22-22-22---|
|--------------------------------------------------|
|--------------------------------------------------|
|--------------------------------------------------|
|
|Guitar II
|--------------------------------------------------|
|--------------------------------------------------|
|-10(x3)-----10-----10(x3)-----10----10----10------|
|-9----------9------9----------9-----9-----9-------|
|-8----------8------8----------8-----8-----8-------|
|---------0-----0-----------0-----0-----0-----0----|

 Guitar I
|--------------------------------------------|
|-19(x3)--18-19-18--19(x3)--18-19-18-19-18---|
|-22------22-22-22--22------22-22-22-22-22---|
|--------------------------------------------|
|--------------------------------------------|
|--------------------------------------------|
|
|Guitar II
|---------------------------------------------|
|---------------------------------------------|
|-10(x3)-----10-----10(x3)-----10----10-------|
|-9----------9------9----------9-----9--------|
|-8----------8------8----------8-----8--------|
|---------0-----0-----------0-----0-----0-----|


RIFF 1
Both Guitars
|---------------------------------------------------------------|
|---------------------------------------------------------------|
|---------------------------------------------------------------|
|-5h6p5p0-8p0--5h6p5p0-8p0-8p0--5h6p5p0-8p0--5h6p5p0-8p0-8p0----|
|-5h6p5p0-8p0--5h6p5p0-8p0-8p0--5h6p5p0-8p0--5h6p5p0-8p0-8p0----|
|-5h6p5p0-8p0--5h6p5p0-8p0-8p0--5h6p5p0-8p0--5h6p5p0-8p0-8p0----|

|-----------------------------------------------------------------|
|-----------------------------------------------------------------|
|-----------------------------------------------------------------|
|-5h6p5p0-8p0--5h6p5p0-8p0-8p0--5h6p5p0-8p0--5h6p5p0--------------|
|-5h6p5p0-8p0--5h6p5p0-8p0-8p0--5h6p5p0-8p0--5h6p5p0-8p0-8p0-8p0--|
|-5h6p5p0-8p0--5h6p5p0-8p0-8p0--5h6p5p0-8p0--5h6p5p0--------------|

|---------------------------------------------------------------|
|---------------------------------------------------------------|
|---------------------------------------------------------------| x2
|-5h6p5p0-8p0--5h6p5p0-8p0-8p0--5h6p5p0-8p0--5h6p5p0-8p0-8p0----|
|-5h6p5p0-8p0--5h6p5p0-8p0-8p0--5h6p5p0-8p0--5h6p5p0-8p0-8p0----|
|-5h6p5p0-8p0--5h6p5p0-8p0-8p0--5h6p5p0-8p0--5h6p5p0-8p0-8p0----|


RIFF 2 (x2)
 Guitar I
|--------------------------------------------------|
|--------------------------------------------------|
|-10(x3)-----10-----10(x3)-----10----10----10------|
|-9----------9------9----------9-----9-----9-------|
|-8----------8------8----------8-----8-----8-------|
|---------0-----0-----------0-----0-----0-----0----|
|
|Guitar II
|-17(x3)--18-17-18--17(x3)--18-17-18-17-18-17-18---|
|--------------------------------------------------|
|--------------------------------------------------|
|--------------------------------------------------|
|--------------------------------------------------|
|--------------------------------------------------|

 Guitar I
|---------------------------------------------|
|---------------------------------------------|
|-10(x3)-----10-----10(x3)-----10----10-------|
|-9----------9------9----------9-----9--------|
|-8----------8------8----------8-----8--------|
|---------0-----0-----------0-----0-----0-----|
|
|Guitar II
|-17(x3)--18-17-18--17(x3)--18-17-18-17-18---|
|--------------------------------------------|
|--------------------------------------------|
|--------------------------------------------|
|--------------------------------------------|
|--------------------------------------------|

[ Tab from: http://www.guitartabs.cc/tabs/n/norma_jean/face_face_tab.html ]
BRIDGE TO RIFF 3
 Guitar I
|--------------------------------------------------------------------|
|--------------------------------------------------9-9--8-8----------|
|--------------------------------------------------7-7--6-6----------|
|-3p2p0-----------3p2p0-----------3p2p0-----------------------0-0----|
|-------3p1p0-----------3p1p0-----------3p1p0-----------------0-0----|
|-------------3p0-------------3p0-------------3p0-------------0-0----|
|                                                             . .
|Guitar II                                                    
|--------------------------------------------------------------------|
|--------------------------------------------------9-9--8-8----------|
|--------------------------------------------------7-7--6-6----------|
|-0---------------0---------------0---------------------------0-0----|
|-0---------------0---------------0---------------------------0-0----|
|-0---------------0---------------0---------------------------0-0----|
                                                              . .

RIFF 3 PART 1 (x4)
 Guitar I
|--------------------------------------------------|
|----------------------------------9-9--8-8--------|
|----------------------------------7-7--6-6--------|
|-3p2p0-----------3p2p0-----------------------0-0--|
|-------3p1p0-----------3p1p0-----------------0-0--|
|-------------3p0-------------3p0-------------0-0--|
|                                             . .
|Guitar II                                    
|--------------------------------------------------|
|----------------------------------9-9--14-14------|
|----------------------------------7-7--12-12------|
|-3p2p0-----------3p2p0-----------------------0-0--|
|-------3p1p0-----------3p1p0-----------------0-0--|
|-------------3p0-------------3p0-------------0-0--|
                                              . .

RIFF 3 PART 2
Both Guitars
|----------------------------------|
|----------------------------------|
|----------------------------------| x8
|-5p3p2-----------5p3p2------------|
|-------5p3p2-----------5p3p2------|
|-------------3p0-------------3p0--|
                                 
 Guitar I
|------------------|
|---9-9---8-8------|
|---7-7---6-6------|
|------------------|
|------------------|
|-0-----0----------|
|
|Guitar II
|------------------|
|---9-9---14-14----|
|---7-7---12-12----|
|------------------|
|------------------|
|-0-----0----------|


BRIDGE TO RIFF 4
Both Guitars
|----------------------------------------------|
|---4-44444----4-44444----4-44444----4---------|
|---7-77777----7-77777----7-77777----7---------|
|----------------------------------------------|
|-0----------0----------0----------0-----0-0---|
|-0----------0----------0----------0-----0-0---|
  .          .          .          .     . .


RIFF 4 (she simply will not die)
 Guitar I
|----------------------------|
|----------------------------|
|-7(x40)--12(x16)--7(x8)-----|
|-x-------x--------x---------|
|-5-------10-------5---------|
|----------------------------|
|
|Guitar II
|----------------------------|
|----------------------------|
|-7(x64)---------------------|
|-6--------------------------|
|-5--------------------------|
|----------------------------|

Both Guitars
|----------------------------------|
|---4---------------4------4-------|
|---7---------------7------7-------| x8
|----------------------------------|
|-0------0-000000-0------0---------|
|-0------0-000000-0------0---------|

|----------------------------------|
|----------------------------------|
|----------------------------------| x4
|----------------------------------|
|-0-0----0-000000-0-0----0-0-------|
|-0-0----0-000000-0-0----0-0-------|


BRIDGE TO RIFF 1 REPEAT
 Guitar I
|---------------------------------------------------------------|
|---------------------------------------------------------------|
|---------------------------------------------------------------|
|-5h6p5p0-8p0--5h6p5p0-8p0-8p0--5h6p5p0-8p0--5h6p5p0-8p0-8p0----|
|-5h6p5p0-8p0--5h6p5p0-8p0-8p0--5h6p5p0-8p0--5h6p5p0-8p0-8p0----|
|-5h6p5p0-8p0--5h6p5p0-8p0-8p0--5h6p5p0-8p0--5h6p5p0-8p0-8p0----|
|
|Guitar II
|---------------------------------------------------------------|
|---------------------------------------------------------------|
|---------------------------------------------------------------|
|----------------------8---8------------8------------8---8------|
|----------------------8---8------------8------------8---8------|
|----------------------8---8------------8------------8---8------|


REPEAT RIFF 1


RIFF 5 (x4)
 Guitar I
|-----------------------------------------|
|-19(x3)--18-19-18--19(x3)--18-19-18-19---|
|-22------22-22-22--22------22-22-22-22---|
|-----------------------------------------|
|-----------------------------------------|
|-----------------------------------------|
|
|Guitar II
|---------------------------------------------------------------|
|---------------------------------------------------------------|
|---------------------------------------------------------------|
|-5h6p5p0-8p0--5h6p5p0-8p0-8p0--5h6p5p0-8p0--5h6p5p0-8p0-8p0----|
|-5h6p5p0-8p0--5h6p5p0-8p0-8p0--5h6p5p0-8p0--5h6p5p0-8p0-8p0----|
|-5h6p5p0-8p0--5h6p5p0-8p0-8p0--5h6p5p0-8p0--5h6p5p0-8p0-8p0----|


OUTRO (repeat lots, get slower as you go)
Both Guitars
|-----------|
|-----------|
|-----------|
|--8--0-----|
|--8--0-----|
|--8--0-----|

then change to this...
|-----------|
|-----------|
|-----------|
|--8--0-0---|
|--8--0-0---|
|--8--0-0---|


END
|-----|
|-----|
|-----|
|--8--|
|--8--|
|--8--|



Enjoy.  tabbed by new noise.
Comments