Norma Jean - Bayonetwork Chords & Tabs

 

Bayonetwork Chords & Tabs

Norma Jean Chords & Tabs

Version: 2 Type: Tab 0 ratings
1 star 2 stars 3 stars 4 stars 5 stars
comments

Bayonetwork Tab

   
I got this from another site and thought I would post it here cuz the other version of
this song doesn't sound as good as this one, personaly.
-=-=-=-=-=-=-=-=-=--=-=-=-=-=-

Norma Jean - Bayonetwork
Tabbed By: Jicky
Email: thejicky@hotmail.com

Tuning: Drop Db (Db Ab Db Gb Bb Eb)

Sorry, my two previous tabs were either wrong or i accidentally put the wrong tuning. 
This one is a lot better.

Db|---0000---0---0-||
Ab|---6666---6---6-||
 E|---9999---9---9-||
 B|----------------||
Gb|----------------||
Db|-0------0---0---||


Db|---0----0---0---||
Ab|---4----6---6---||
 E|----------------||
 B|----------------||
Gb|----------------||
Db|-0---2b---0---0-||


Db|----------------||
Ab|----------------||
 E|--let ring------||
 B|-2--------------||
Gb|-2--------------||
Db|-2--------------||


Db|-----------||
Ab|-----------||
 E|-----------||
 B|-----------||
Gb|-1/9\1/9\1-||
Db|-1/9\1/9\1-||


Db|-----------------||
Ab|-----------------||
 E|-----------------||
 B|-----------------||
Gb|-2-2-3-2-x-2-2-x-||
Db|-2-2-3-2-x-2-2-x-||


Db|-----------||
Ab|-----------||
 E|-----------||
 B|-----------||
Gb|-1/9\1/9\1-||
Db|-1/9\1/9\1-||


Db|---------------------||
Ab|---------------------||
 E|-7-7-7-6-6-6-6-6-6---||
 B|---------------------||
Gb|-5-5-5-5-5-5-5-5-5-0-||
Db|-------------------0-||


Db|-----------------------||-------------|----------------------------------------|
Ab|-----------------------||-------------|----------------------------------------|
 E|-----------------------||-------------|----------------------------------------|
 B|-----------------------||-------------|----------------------------------------|
Gb|-------------5---xx-xx-||-5-5-5-5-8-0-|-5-5-5-5-5-5-3-3-0-0-2--2-2-2-2-2-2-2-2-|
Db|-2-2-2p0-2/3---0-xx-xx-||-5-5-5-5-8-0-|-5-5-5-5-5-5-3-3-0-0-2--2-2-2-2-2-2-2-2-|


Db|---0000---0---0-||
Ab|---6666---6---6-||
 E|---9999---9---9-||
 B|----------------||
Gb|----------------||
Db|-0------0---0---||


Db|---0----0---0---||
Ab|---4----6---6---||
 E|----------------||
 B|----------------||
Gb|----------------||
Db|-0---2b---0---0-||


Db|-------------------------------------------------------------------------||
Ab|-------------------------------------------------------------------------||
 E|-------------------------------------------------------------------------||
 B|-------------------------------------------------------------------------||
Gb|-2-3-x-2-3-x-2-3-6-x-2-3-x-2-3-x-1-0-3-x-2-3-x-2-3-x-2-3-6-x-2-3-x-2-3-x-||
Db|-2-3-x-2-3-x-2-3-6-x-2-3-x-2-3-x-1-0-3-x-2-3-x-2-3-x-2-3-6-x-2-3-x-2-3-x-||


Db|-----------||
Ab|-----------||
 E|-----------||
 B|-----------||
Gb|-1/9\1/9\1-||
Db|-1/9\1/9\1-||

[ Tab from: http://www.guitartabs.cc/tabs/n/norma_jean/bayonetwork_tab_ver_2.html ]
Db|---------------------------------------------------||
Ab|---------------------------------------------------||
 E|---------------------------------------------------||
 B|---------------------------------------------------||
Gb|-2-3-x-2-3-x-2-3-6-x-2-3-x-2-3-x-1-0-3-x-2-3-x-2-3-||
Db|-2-3-x-2-3-x-2-3-6-x-2-3-x-2-3-x-1-0-3-x-2-3-x-2-3-||



Db|-----------||
Ab|-----------||
 E|-----------||
 B|-----------||
Gb|-1/9\1/9\1-||
Db|-1/9\1/9\1-||



Db|------------------||---|
Ab|------------------||---|
 E|-4--4h5--7p6--7p6-||---|
 B|-2--3----5----5---||---|
Gb|-2--3----5----5---||-0-|
Db|-2--3----5----5---||-0-|


Db|-----------------------||---------------|
Ab|-----------------------||---------------|
 E|-----------------------||---------------|
 B|-----------------------||---------------|
Gb|-------------5---xx-xx-||-5-5-5-5-8-8-8-|
Db|-2-2-2p0-2/3---0-xx-xx-||-5-5-5-5-8-8-8-|


Db|-----------------0-0-||------------------|
Ab|-----------------6-6-||------------------|
 E|---------------------||------------------|
 B|---------------------||------------------|
Gb|-------------5-------||-5-5-5-5-3--0-0-2-|
Db|-2-2-2p0-2/3---0-----||-5-5-5-5-3--0-0-2-|


Db|---------------0-0-||
Ab|---------------6-6-||
 E|-------------------||
 B|-------------------||
Gb|-----------5-------||
Db|-2-2p0-2/3---0-----||


Db|-------------------||
Ab|-------------------||
 E|-------------------||
 B|-------------------||
Gb|-2-xxxxxxxxxxxxxxx-||
Db|-2-xxxxxxxxxxxxxxx-||


Db|------------------------------------------------||
Ab|------------------------------------------------||
 E|------------------------------------------------||
 B|------------------------------------------------||
Gb|-2p0-------2-x-x-x-x--x-x-x--x-x-2-x-x-x-x--x-x-||
Db|-----3-1-0-2-x-x-x-x--x-x-x--x-x-2-x-x-x-x--x-x-||


Db|---------------------------------------------||
Ab|---------------------------------------------||
 E|---------------------------------------------||
 B|---------------------------------------------||
Gb|-2p0-----------------------------------------||
Db|-----3-1-0-2-1-1-1-1-1-1-1-1-1-2-1-1-1-1-0-0-||


Db|---------------||--------|
Ab|---------------||--------|
 E|---------------||--------|
 B|---------------||--------|
Gb|---2p0-------2-||-333333-|
Db|-0-----3-1-0-2-||-333333-|

Db|---0000---0---0-||
Ab|---6666---6---6-||
 E|---9999---9---9-||
 B|----------------||
Gb|----------------||
Db|-0------0---0---||


Db|-0-------0---0---||
Ab|-6-------6---6---||
 E|-9-------9---9---||
 B|-----------------||
Gb|-----------------||
Db|---000000--0---0-||


Db|---88-668-----------00-000---------||
Ab|---00-000---9---7---66-446---0---0-||
 E|------------0---0------------5---3-||
 B|-----------------------------------||
Gb|-----------------------------------||
Db|-x--------x---x---x--------x---x---||

-=-=-=-=-=-=-=-=-=-=-=-=--=

Like the other guy says, you'd think more people would like this band.
Comments