Norah Jones - Humble Me Chords & Tabs

 

Humble Me Chords & Tabs

Norah Jones Chords & Tabs

Version: 2 Type: Tab

Humble Me Tab

   
-------------------------------------------------------------------------------
			     HUMBLE ME - Norah Jones
-------------------------------------------------------------------------------

Tabbed by: underrated
Email: mattconnellan@yahoo.com

Tuning: 1/2 step down

After a few false starts in the song, she plays this:

Intro
e|-----------------------------------------------------------------------------------------|
B|---5-5-5-5-5---3-3-3-3-3---3-3-3---------------------5-5-5-5-5---3-3-3-3-3---------------|
G|---5-5-5-5-5---------------5-5-5-----------5-7-5-----5-5-5-5-5-----------------5-----5---|
D|---------------3-3-3-3-3---5-5-5-5-------7-----------------------3-3-3-3-3---5-----3-----|
A|-3-----------------------3---------7---8---------8-3-----------------------3-----5-----3-|
E|-------------3-----------------------5-------------------------3-----------------3-------|

When out on a limb...
e|-------------------------------------------------------------------------------------------------------|
B|---5-5-5-5-5---3-3-3-3-3---3-3---------------------5-5-5-5-5---3-3-3-3-3-------------------------------|
G|---5-5-5-5-5---------------5-5---5-5-------5-------5-5-5-5-5-----------------5-5---5-------5-----------|
D|---------------3-3-3-3-3---5-5---5-5-----7---7-----------------3-3-3-3-3---5---3-3---------5-----------|
A|-3-----------------------3-----7-------8-------8-3-----------------------3-----5-----7-5h7---7p5-3-----|
E|-------------3-----------------------5-----------------------3-----------------3-------------------5p3-|
[ Tab from: http://www.guitartabs.cc/tabs/n/norah_jones/humble_me_tab_ver_2.html ]
Baby's in the backseat...
e|-----------------------------------------------------------------------------------------------|
B|---5-5-5-5-5---3-3-3-3-3---3-3---------------------5-5-5-5-5---3-3-3-3-3-----------------------|
G|---5-5-5-5-5---------------5-5---5-5-------5-------5-5-5-5-5-----------------5-5---5-----------|
D|---------------3-3-3-3-3---5-5---5-5-----7---7-----------------3-3-3-3-3---5---3-3---5-----5---|
A|-3-----------------------3-----7-------8-------8-3-----------------------3-----5-----3-5h7---7-|
E|-------------3-----------------------5-----------------------3-----------------3---------------|

What do you say...
e|---------------------------------------------|
B|----------------0----------------------------|
G|-------6--------0--------------5-------5-----|
D|-----7--------5----------5---3-----7---------|
A|---8--------7------7-5h7-------------8----X2-|
E|-5--------3----------------3-----5-----------|

It never ends when you want it to...
e|------------------------------------|
B|------------------------------------|
G|-----5-----5-----5----------0-----5-|
D|---8-----7---8-8---7------3-----3---|
A|-------------5-----3--5-5-----5-----|
E|-6-----5-----6-----5--3-------------|

You humble me...
e|---------------------------------------------------------------------------------------|
B|---5-5-5-5-5---3-3-3-3-3---------------------------------------------------------------|
G|---5-5-5-5-5-------------------5-----------5-----------5---------5----------0-----5----|
D|---------------3-3-3-3-3-----7---7-------7---7-------7---7-----3----------3---3--------|
A|-3-------------------------8-------8---8-------7---8-------5-------7----5-------5---X2-|
E|-------------3-----------5-----------5-----------5-----------0--------3----------------|

Repeat for the second half, with minor variations


| /  slide up
| \  slide down
| h  hammer-on
| p  pull-off
| ~  vibrato
| +  harmonic
| x  Mute note
===============================================================================