Nora - Nobody Takes Pictures Of The Drummer Chords & Tabs

 

Nobody Takes Pictures Of The Drummer Chords & Tabs

Nora Chords & Tabs

Version: 1 Type: Bass Tab 0 ratings
1 star 2 stars 3 stars 4 stars 5 stars
comments

Nobody Takes Pictures Of The Drummer Bass Tab


"NOBODY TAKES PICTURES OF THE DRUMMER"
NORA
TABBED BY: NORARIOTER19 A.K.A FAT SEAN
TUNING: DROPPED D

OK SO THIS IS MY FIRST TAB, I AM ABOUT 90% SURE THIS IS CORRECT, PLEEZ RATE,
AND I WOULD LIKE TO SEE SOME MORE NORA TABS ON HERE TOO.

~ = RING OUT
X = QUICKLY MUTE
( ) = OPTIONAL NOTE
G|-------------------------------------------|
D|-------------------------------------------|
A|-------------------------------------------|
D|--0-0--1-1--0-0--1-1--0-0--1-1--0-0--0-3-2-|

G|-------------------------------------------|
D|-------------------------------------------|
A|-------------------------------------------|
D|--0-0--1-1--0-0--1-1--0-0--1-1--0-0--3-2-1-|

Back to first one
then second one

                     8x     
G|------------------------------------|
D|------------------------------------|
A|------------------------------------|
D|--0-0-1-0-1-0---0-0-3-2-3-2---------|
                       
                       4x
G|------------------------| ------------|                 
D|------------------------|-------------|
A|------------------------|-------------|
D|--0-1-0-1~--------------|------0~-----|
[ Tab from: http://www.guitartabs.cc/tabs/n/nora/nobody_takes_pictures_of_the_drummer_btab.html ]
G|---------------------------------------------|
D|---------------------------------------------|
A|---------------------------------------------|
D|--0~--3----7/0~--3----0~--3----0~--3---------|
        x          x        x        x  
                       16x    
G|------------------------|
D|------------------------|
A|------------------------|
D|--0-1-(0)--3-2-(0)------|
		
                      1x				4x
G|-------------------------|---------------------------------------|
D|-------------------------|---------------------------------------|
A|-------------------------|---------------------------------------|
D|--3-7-2-3--3-7-2-3-------|--3-7-2-3---3-7-2-3--3434--------------|

G|----------------------|                |--------------------------|
D|----------------------|                |--------------------------|
A|-----3-2-0------------|                |------0-0-0-0-------------|
D|--0---------3---------|                |--------------------------|
PLAY THIS 3x            AND AFTER EVERY THIRD TIME PLAY THIS, 
                        DO THAT A TOTAL OF 3x

G|--------------------------------------|
D|--------------------------------------|
A|--0-0-0-0-0-0-0-0-0-0-0-0-0-0-0-0-----|
D|--------------------------------------|

G|----------------------------------------------------------------------
D|----------------------------------------------------------------------
A|----------------------------------------------------------------------
D|-0-0--1-1--0-0--1-1--0-0--1-1--0-0--1-1--0-0--1-1--0-0--1-1--0-0--1-1-
  -0-0--1-1--0-0--| 

       sorry i copied and pasted it so it messed it up a bit
Comments