Noori - Nishaan Chords & Tabs

 

Nishaan Chords & Tabs

Noori Chords & Tabs

Version: 1 Type: Tab

Nishaan Tab

   
NISHAAN BY NOORI
tabbed by ahmed nadeem (ahm3d_nad33m@hotmail.com)

Intro
|--------------------------------------||
|--------------------------------------||
|---99--\-12-12-12-\-14-14-x----777----||  x4
|---xx--\--x--x---x-\--x--x-x-----xxx---|| 
|---77--\-10-10-10-\-12-12-x----555----||
|--------------------------------------|| 

Second guitar kicks in with bass playing E5, G5, A5, D5 

Verse
|--------------------------||
|--------------------------||
|--------------------------||
|--------5-4-5-7 5 4 5-----||
|------3-------------------||
|--------------------------||

|--------------------------||
|--------------------------||
|--------------------------||
|--------5-4-5-7 5 4 5-----||
|------5-------------------||
|--------------------------||

|--------------------------||
|--------------------------||
|--------------------------||
|--------5-4-5-7 5 4 5-----||
|------3---------------7----||
|--------------------------||

then palm mute and play C5 and D5 tehn C5 and D5 then end on E5
[ Tab from: http://www.guitartabs.cc/tabs/n/noori/nishaan_tab.html ]
then just play through the notes of C5 in E5

CHORUS (intro and intro with power chords)

tehn post chorus (likho ail naee....)
C5, D5, C5. end on E5 

then the ali hamza singing part ist arpeggios of E5 and C5

SOLO 

|-----------------------------------------||
|-----------------------------------------||
|---12-14-12-14-12-14-12-14-12-b14-12-----||
|----x--x--x--x---x--x--x---x--x-------x--||
|---10-12-10-12-10-12-10-12-10-----10-----||
|-----------------------------------------||

|--12-----8times---15-121212-17-121212-3times-15-121212--15b17-15---------||
|--15b17------------------------------------------------------------------||
|-------------------------------------------------------------------------||
|-------------------------------------------------------------------------||
|-------------------------------------------------------------------------||
|-------------------------------------------------------------------------||
\
CHORUS

FINISH

comment teh otehr tabs were just awful......... no offense to whoever tabbed them