Noori - Manwa Re Chords & Tabs

 

Manwa Re Chords & Tabs

Noori Chords & Tabs

Version: 1 Type: Tab 0 ratings
1 star 2 stars 3 stars 4 stars 5 stars
comments

Manwa Re Tab

   
standard tuning

dhol ki taal bigarey    garey dil jhoom ke ga rey
   G                      G
e -3-----------------------3-----------------------|
B -3-----------------------3-----------------------|
G -0-----------------------0-----------------------|
D -0-----------------------0-----------------------|
A -2-----------------------2-----------------------|
E -3-----------------------3-----------------------|

apna har dard chupakey   nachey zur sab ko nacha ke

e -3------------------------3----------------------|
B -3------------------------3----------------------|
G -0------------------------0----------------------|
D -2------------------------2----------------------|
A -3------------------------3----------------------|
E -0------------------------0----------------------|

mukh pey ghungat daley  naina do mat waley

e --3--------------------3-------------------------|
B --3--------------------3-------------------------|
G --0--------------------2-------------------------|
D --2--------------------2-------------------------|
A --2--------------------0-------------------------|
E --0--------------------0-------------------------|

   aaj koi   chala hai sajh key  piya  nagariya re

e -3---------3-------------------3------------------|
B -3---------3-------------------3------------------|
G -0---------0-------------------0------------------|
D -2---------0-------------------2------------------|
A -3---------2-------------------2------------------|
E -0---------3-------------------0------------------|

 yeh bhandan  naate sarey  tor ke manwa rey ho manwa reeeeyyyy

e -3------------3------------3--------------3-------2-----------|
B -3------------3------------3--------------3-------2-----------|
G -0------------0------------0--------------0-------0-----------|
D -2------------2------------0--------------2-------0-----------|
A -2------------3------------2--------------3-------2-----------|
E -0------------0------------3--------------0-------3-----------|

 ho manwa rey         ho manwa reyyyyyy   na tarpa rey

e -3--------------------3------------------3-------3-|
B -3--------------------3------------------3-------3-|
G -0--------------------2------------------0-------0-|
D -2--------------------2------------------2-------2-|
A -3--------------------0------------------3-------2-|
E -0--------------------0------------------0-------0-|

  agan dil ki na sulka rey   na bharka rey  na chanka rey
[ Tab from: http://www.guitartabs.cc/tabs/n/noori/manwa_re_tab.html ]
e -3-------3-----3-----------3-------------3----------|
B -3-------3-----3-----------3-------------3----------|
G -0-------0-----0-----------2-------------0----------|
D -2-------2-----2-----------2-------------2----------|
A -3-------2-----3-----------0-------------3----------|
E -0-------0-----0-----------0-------------0----------|

  yeh naina rey      ho manwa rey

e -3------------------3----------------------------|
B -3------------------3----------------------------|
G -0------------------0----------------------------|
D -2------------------0----------------------------|
A -2------------------2----------------------------|
E -0------------------3----------------------------|

solo: this part is shown in reverse i:e the actual positions of strings

 -------------------------------------------------|
 -------------------------------------------------|
 -------------------------------------------------|
 -------------------------------------------------|
b ------------------------------------------------|
e ----(7-5)--5h7-7-7s8s10-------------------------|

 ---------------------------------------------------|
 ---------------------------------------------------|
 ---------------------------------------------------|
 ---------------------------------------------------|
b --------------------------------------------------|
e --8-7h8p7s5h7-------------------------------------|

 -------------------------------------------------|
 -------------------------------------------------|
 -------------------------------------------------|
 -------------------------------------------------|
b ------------------------------------------------|
e ---7s10---10-10-10--8-7-5-----------------------|

 -------------------------------------------------|
 -------------------------------------------------|
 -------------------------------------------------|
 -------------------------------------------------|
b -----------8-8--8h10--10s12---------------------|
e --5h7--7--5-------------------------------------|

 -------------------------------------------------|
 -------------------------------------------------|
 -------------------------------------------------|
 -------------------------------------------------|
b -12s13s12--12--10--88888h1010101010-s12---------|
e ------------------------------------------------|

 -------------------------------------------------|
 -------------------------------------------------|
 -------------------------------------------------|
 -------------------------------------------------|
b -12p10-8888h10p8-7-5-5s10-10s88888--------------|
e ------------------------------------------------|

then repeat the chords with the lyrics in the same pattern ...remember punching is an 
part with strumming of the chords with the beats......

for any quries or comments conntact gnxsmoker@hotmail.com
Comments