Noori - Kuttay Te Tu Uthay Chords & Tabs

 

Kuttay Te Tu Uthay Chords & Tabs

Noori Chords & Tabs

Version: 1 Type: Bass Tab 0 ratings
1 star 2 stars 3 stars 4 stars 5 stars
comments

Kuttay Te Tu Uthay Bass Tab

Band:Noori
Song: Kuttay Te Tu Uthay




G|---------------------------|
D|---------------------------|
A|-------7---5---8---5---7---|
E|---5-----------------------|

G|---------------------------|
D|---------------------------|
A|---------------------------|
E|-----5-5----5-5----5-5-----|



G|---------------------------|
D|---------------------------|
A|-------7---5---8---5---7---|
E|---5-----------------------|

G|---------------------------|
D|---------------------------|
A|---------------------------|
E|-----5-5----5-5----5-5-----|

[ Tab from: http://www.guitartabs.cc/tabs/n/noori/kuttay_te_tu_uthay_btab.html ]
Alternative:


G|---------------------------|
D|---------------------------|
A|---------------------------|
E|---5--12--10--13--10--12---|

G|---------------------------|
D|---------------------------|
A|---------------------------|
E|-----5-5----5-5----5-5-----|



G|---------------------------|
D|---------------------------|
A|---------------------------|
E|---5--12--10--13--10--12---|

G|---------------------------|
D|---------------------------|
A|---------------------------|
E|-----5-5----5-5----5-5-----|





Usman Khan(Mani).......Sekcmonks@Hotmail.com
Comments