Noori - Hum Bhoolay Chords & Tabs

 

Hum Bhoolay Chords & Tabs

Noori Chords & Tabs

Version: 3 Type: Tab 0 ratings
1 star 2 stars 3 stars 4 stars 5 stars
comments

Hum Bhoolay Tab

   
Song: Hum Bhoolay
Artist: Noori
Album: Suno Ke Main Hun Jawan
Tabbed by: Ali Hafeez
This Tab is completely my own work.

Tuning: Standard (EADGBe - low to high)

NOTE:
Ok fairly easy song...i tabbed this before for half-step
down cause that's the tuning my guitar was on however, 
after playing the rest of the album i think they are on 
standard tuning, so for all those ppl who want to play 
the whole album from start to end without having to re-tune,
here's what i think it looks like on standard tuning. Again
the second guitar is playing random little appregios here 
and there , but its nothing to lose sleep over. Check the 
timing of the two guitars with the CD, i've left the
strumming patterns out cause its just makes a really 
confusing tab. All guitars clean (no distortion).
If you want any other noori songs email me. ciao.


Symbols:
b - bend
r - release
/ - slide higher
\ - slide lower
(x) - natural harmonic

Fig 1.
Intro/Verse
Guitar 1
|------------------------------------------------------||
|---------0~-----------0~-----------0~-----------0~----||
|-------4-4~---------4-4~---------4-4~---------4-4~----||
|-----4-----4-----4------4-----4------4-----4----------||
|---2--------------------------------------------------||
|---------------0-----------4-----------2--------------|| x4

Guitar 2 (Intro)
|------------------------------------------------------||
|---------------------------------------7--------------||
|------8b9r8\-------8b9r8b9r8-------8/9---9p8-6/8\6----||
|------------------------------------------------------||
|------------------------------------------------------||
|------------------------------------------------------||

|------------------------------------------------------||
|-----------------------7------------------------------||
|------8b9r8~-------8h9--9p8\6/11~-------11/16~--------||
|------------------------------------------------------||
|------------------------------------------------------||
|------------------------------------------------------|| x2


Fig2.
Bridge
Guitar 1
|---------------------------------||
|---0-0~------2--------------0~---||
|---4-4~------2---------1----4~---||
|---4---------2---------2----4~---||
|---2---------0---------2----2~---||
|-----------------------0---------||

Guitar 2
|-------------0---------0--------0-----0-----0-----0-----0--------||
|---0-0-0-------4/5/7---0------4-----4-----4-----4-----4---4------||
|---4-4-----------------1----6-----6-----6-----6-----6-------6-4--||
|---4-4-----------------2-----------------------------------------||
|---2-------------------2-----------------------------------------||
|-----------------------------------------------------------------||

[ Tab from: http://www.guitartabs.cc/tabs/n/noori/hum_bhoolay_tab_ver_3.html ]
Fig3.
Chorus
|---0---0---0---0---------------0--------(12)--||
|---0---0---0---0---4---0---2---0----(12)------||
|---1---4---1---4---4---3---2---1--------------||
|---2---4---2---4---6---4---2---2--------------||
|---2---2---2---2---6---4---0---2--------------||
|---0-------0-------4---2-------0--------------||



END -


Song: Hum Bhoolay
Artist: Noori
Album: Suno Ke Main Hun Jawan
Tabbed by: Ali Hafeez
This Tab is completely my own work.


Tuning (low to high): Eb, Ab, Db, Gb, Bb, Eb (half-step down)

I don't know if other ppl play it on half step down tuning, but
it makes more sense for me there. Listen to the CD for matching
the two guitar parts. If you have a second guitarist, he should
play loose appregios on the chords, cause thats what he's doing
on the CD. The Guitar 2 parts here are not complete, but that's
basically all hes doing here and there throughout the song. 
All Guitars are clean (no distortion)


Fig 1. Verse
Guitar 1 (with minor strumming variations)
|---------0-----------1-----------0-----------3-----||
|---1-----1-----------1-----------1-1---------1-----||
|-----0-----0---------2-2-------2-----------0------o||
|-------------------3---------2-----------0--------o||
|---3---3---------3---------0-----------------------||
|---------------1-----------------------3-----------|| x4

Guitar 2
|-------------------------------0-------------------|
|------------------------------------8--------------|
|-------9v10--------9v10----------10---10p9-7b9r7---|
|---------------------------------------------------|
|---------------------------------------------------|
|---------------------------------------------------|

|---------------------------------------------------||
|------------------------8--------------------------||
|-------9v10--------9h10---10p9-7/12---------12/17-o||
|--------------------------------------------------o||
|---------------------------------------------------||
|---------------------------------------------------|| x2


Fig2. Bridge
Guitar 1			
|---3---3----------1-------1------0----------------------|
|---1-----1--------3-------1------1----------------------|
|---0-------0------3-------2------0--(strum this---------|
|---0--------------3-------3------2-----chord)-----------|
|---x--------------1-------3------3----------------------|
|---3---------3------------1-----------------------------|

Guitar 2 (only on the first bridge)

|------------------1-0---------------0-----0-----0-------|
|----------------------3---------------6-----6-----6-----|
|------------------------3---------7-----7-----7-----7---|
|--------------------------3-----------------------------|
|--------------------------------------------------------|
|--------------------------------------------------------|


Fig3. Chorus
Guitar 1, (Guitar 2 is playing appregios on the same chords as Guitar 1)
|---1---0---1---0-------3---1---1---|
|---1---1---1---1---3---3---3---1---|
|---2---0---2---0---2---0---3---2---|
|---3---2---3---2---0---0---3---3---|
|---3---3---3---3---0---2---1---3---|
|---1-------1-----------3-------1---|




Comments at necromorphic@hotmail.com.
Comments