Noori - Hum Bhoolay Chords & Tabs

 

Hum Bhoolay Chords & Tabs

Noori Chords & Tabs

Version: 1 Type: Bass Tab 0 ratings
1 star 2 stars 3 stars 4 stars 5 stars
comments

Hum Bhoolay Bass Tab

Intro:
                 (2x)
G|-------------------|
D|-------------------|
A|-------------------|
E|---7---0---4---2---|

G|--------------------------------------------------------------------|
D|--------------------------------------------------------------------|
A|--------------------------------------------------------------------|
E|---7----------------0-------------------4-------------------2-------|
     Dil Meray Rolay, Kya Kya Tu Bolay,   Main Sun Raha Hun Sada...

G|--------------------------------------------------------------------|
D|--------------------------------------------------------------------|
A|--------------------------------------------------------------------|
E|---7-----------------0--------------------4----------------2--------|
     Kaise Kahun Mein, Pathar Buhat Hain,   Pholon Ke Rastey Jaa...

G|--------------------------------------------------------------------|
D|--------------------------------------------------------------------|
A|--------------------------------------------------------------------|
E|-----------5------7-----------------7-------------------------------|
     O Sathi Re, In Raahon Ko Tu Jaan Le...

G|--------------------------------------------------------------------|
D|--------------------------------------------------------------------|
A|--------------------------------------------------------------------|
E|---7--------------0-------------------------4-------------7---------|
     Diya Na Baati, Sangi Na Saathi,          Koi Nahin Hai Tera...

G|--------------------------------------------------------------------|
D|--------------------------------------------------------------------|
A|--------------------------------------------------------------------|
E|---7-----------------0--------------------4----------------2--------|
     Kaise Kahun Mein, Pathar Buhat Hain    Pholon Ke Rastey Jaa...
[ Tab from: http://www.guitartabs.cc/tabs/n/noori/hum_bhoolay_btab.html ]
G|--------------------------------------------------------------------|
D|--------------------------------------------------------------------|
A|--------------------------------------------------------------------|
E|-----------5------7-----------------7-------------------------------|
     O Sathi Re, In Raahon Ko Tu Jaan Le...

G|--------------------------------------------------------------------|
D|--------------------------------------------------------------------|
A|--------------------------------------------------------------------|
E|-------7----------------5----------------7-----------------5--------|
     Hum Bhooley... Dunya Bhoolay...   Hum Bikhray... Ab Kia Rona...

G|--------------------------------------------------------------------|
D|--------------------------------------------------------------------|
A|--------------------------------------------------------------------|
E|------------4----------------2--------------------------------------|
     Ho Beeti Yadon Ke Saayey, Ab Hain Paraaey
     
G|--------------------------------------------------------------------|
D|--------------------------------------------------------------------|
A|--------------------------------------------------------------------|
E|------0-------------------7-----------------------------------------|
     Is Chaaoan Ko Tu Bhool Ja...


After this bass patterns are repeated:


Sun Lay...
Dil Meray Rolay, Kya Kya Tu Bolay,
Main Sun Raha Hun Sada...
Darya Na Sahil, Tufan Manzil,
Kano Main Hai Shor Sa...
Kaise Kahun Mein, Mojein Bohat Hain,
Pholon Ke Rastey Jaa...
O Sathi Re, In Mojon Ko Tu Jan Ley...

Hum Bhooley... Dunya Bhoolay...
Hum Bikhray... Ab Kia Rona...
Ho Beeti Yadon Ke Saayey, Ab Hain Paraaey
Is Chaaoan Ko Tu Bhool Ja...
Sun Lay...

Dil Meray Rolay, Kya Kya Tu Bolay,
Main Sun Raha Hun Sada...

 


Usman Khan (Mani).............Sekcmonks@Hotmail.com
Comments