Noori - Dobara Phir Se Chords & Tabs

 

Dobara Phir Se Chords & Tabs

Noori Chords & Tabs

Version: 1 Type: Tab 0 ratings
1 star 2 stars 3 stars 4 stars 5 stars
comments

Dobara Phir Se Tab

Song: Dobara Phir Se
Artist: Noori
Album: Suno Kay Mein Hoon Jawan
Tabbed by: Ali Hafeez (necromorphic@hotmail.com)
This tab is completely my own work.

Tuning: Standard (EADGBe - low to high)

NOTE:
Ok, its a pretty simple song, i didn't tab out the 
number of times each chord is strummed, cause that
would make a mess, so listen to the CD closely. All
guitars are on some kind of standard distortion.
Just pay attention to timing on the chords and how 
long you have to stay on each chord.
If you want any other Noori tabs, just ask.

Fig1. 
Intro
Guitar 1
|-------------------------||
|-------------------------||
|---9---6-----------------||
|---9---6---6---7--/--9---||
|---7---4---6---7--/--9---||
|-----------4---5--/--7---|| x 4

Guitar 2
|-----------------------------------------||
|-----------------------------------------||
|---9-9-999-8h9-9-999-8h9-9-11p9-8-8h9-9--||
|-----------------------------------------||
|-----------------------------------------||
|-----------------------------------------|| x 2


Fig2.
Verse
|-------------------------------------------------||
|-------------------------------------------------||
|-------------2-2-------2-4-4-------2-2-------2---||
|---2-2-------2-2-------2-4-4-------2-2-------2---||
|---2-2-------0-0-0m0m0-0-2-2-2m2m2-0-0-0m0m0-0---||
|---0-0-0m0m0-------------------------------------|| x 2


FIg3.
Bridge
(play the last chord for an extended time during second repitition)
|-------------------||
|-------------------||
|---1---------------||
|---2---6---7---9---||
|---2---6---7---9---||
|---0---4---5---7---|| x 2

[ Tab from: http://www.guitartabs.cc/tabs/n/noori/dobara_phir_se_tab.html ]
Fig4.
Chorus
|-------------------------||
|-------------------------||
|---9---6-----------------||
|---9---6---6---7--/--9---||
|---7---4---6---7--/--9---||
|-----------4---5--/--7---|| x 3

|-----------------------------------------------------------------||
|-----------------------------------------------------------------||
|---9---6---------------------------------------------------------||
|---9---6---6---7-7-7-------9-9-9-9-7-7-7-7-9-9-9-9-7-7-7-7---2---||
|---7---4---6---7-7-7-------9-9-9-9-7-7-7-7-9-9-9-9-7-7-7-7---2---||
|-----------4---5-5-5-------7-7-7-7-5-5-5-5-7-7-7-7-5-5-5-5---0---||
	          (hold)


Fig5.
Solo
|---12-11-9-7h9p7-----------------------------|
|-------------------10-9-7h9p7----7-----------|
|-------------------------------9---9-8h9-9---|
|---------------------------------------------|
|---------------------------------------------|
|---------------------------------------------|

|--------------------------------------------------------|
|--------------------------------------------------------|
|---11p9-9--13p9-9--11p9-9--13p9-9-11p9-9-13p9-9-8h9-9---|
|--------------------------------------------------------|
|--------------------------------------------------------|
|--------------------------------------------------------|

|------------------------------------------------|
|------------------------------------------------|
|---4/6-6/9-9---4/6-6/11-11---4/6-6/9-9-9-11-9---|
|------------------------------------------------|
|------------------------------------------------|
|------------------------------------------------|

|--------------------------------------------------------||
|--------------------------------------------------------||
|---9h11p9--11/13-13-13-13-11--9h11p9\8h9-9-11p9-8h9-9---||
|--------------------------------------------------------||
|--------------------------------------------------------||
|--------------------------------------------------------||


Comments