Noori - Dobara Phir Se Chords & Tabs

 

Dobara Phir Se Chords & Tabs

Noori Chords & Tabs

Version: 1 Type: Chords 0 ratings
1 star 2 stars 3 stars 4 stars 5 stars
comments

Dobara Phir Se Chords

   
Author/Artist: Ali noor
Title: DObara Phir se (soni chad de mahiwaal)pluged version
Transcribed by: Altamash 
Email: alkhan23@hotmail.com
Date: 28-October-2003
Comments : This tabs is totally my work all suggestions, corrections 
welcome at alkhan23@hotmail.com

**Note: I have also figured out "jana tha hum ne" and shall soon be putting it up on the net**

Standard tuning

riff 1		
e--x----x---x--x--x----x---x--x--x--x----x---x--x-x-x----x--x---x--x--x
B--x----x---x--x--x----x---x--x--x--x----x---x--x-x-x----x--x---x--x--x
G--x----x---x--x--x----x---x--x--x--x----x---x--x-x-x----x--x---x--x--x
D-14---14--14-14-14---11--11-11-11-11----6---6--6-6-6----7--7---9--9--x
A-14---14--14-14-14---11--11-11-11-11----6---6--6-6-6----7--7---9--9--x
E-12---12--12-12-12----9---9--9--9--9----4---4--4-4-4----5--5---7--7--x
**"X" in the end of the first and second riff meaning total mute for all strings played once.**

riff 2
e--x---x---x---x---x---x----x-..................................
B--x---x---x---x---x---x----x-..................................
G--x---x---x---x---x---x----x-..................................
D-14---x---7---x---9--slide-7-.......let ring...................
A-14---x---7---x---9--slide-7-.......let ring...................
E-12---x---5---x---7--slide-5-.......let ring...................

riff 3        
e--x--x--x--x---x-x-x-x---x-x-x-x---x-x-x-x
B--x--x--x--x---x-x-x-x---x-x-x-x---x-x-x-x
G--x--x--x--x---x-x-x-x---x-x-x-x---x-x-x-x
D-14-14-14-14---6-6-6-6---7-7-7-7---9-9-9-9
A-14-14-14-14---6-6-6-6---7-7-7-7---9-9-9-9
E-12-12-12-12---4-4-4-4---5-5-5-5---7-7-7-7




Intro 


riff #1 x 4


riff #2
e--x---x---x---x---x---x----x-..................................
B--x---x---x---x---x---x----x-..................................
G--x---x---x---x---x---x----x-..................................
D-14---x---7---x---9--slide-7-.......keep strumming.............
A-14---x---7---x---9--slide-7-.......keep strumming.............
E-12---x---5---x---7--slide-5-.......keep strumming.............
wai tu mere gaal maan lei soniyay,mohniyay, sohniyay,

e--x---x---x---x---x---x----x-..................................
B--x---x---x---x---x---x----x-..................................
G--x---x---x---x---x---x----x-..................................
D-14---x---7---x---9--slide-7-.......keep strumming.............
A-14---x---7---x---9--slide-7-.......keep strumming.............
E-12---x---5---x---7--slide-5-.......keep strumming.............
vekh hove pyar peed katth honiyey meree mann moniyay

riff #3
e--x--x--x--x---x-x-x-x---x-x-x-x---x-x-x-x
B--x--x--x--x---x-x-x-x---x-x-x-x---x-x-x-x
G--x--x--x--x---x-x-x-x---x-x-x-x---x-x-x-x
D-14-14-14-14---6-6-6-6---7-7-7-7---9-9-9-9
A-14-14-14-14---6-6-6-6---7-7-7-7---9-9-9-9
E-12-12-12-12---4-4-4-4---5-5-5-5---7-7-7-7
chadd saray kheday hunn tu chal ni meray naal,

e--x--x--x--x---x-x-x-x---x-x-x-x---x-x-x-x
B--x--x--x--x---x-x-x-x---x-x-x-x---x-x-x-x
G--x--x--x--x---x-x-x-x---x-x-x-x---x-x-x-x
D-14-14-14-14---6-6-6-6---7-7-7-7---9-9-9-9
A-14-14-14-14---6-6-6-6---7-7-7-7---9-9-9-9
E-12-12-12-12---4-4-4-4---5-5-5-5---7-7-7-7
aaja meray vere sohni chaad de mahiwaaaaaaaal.

Riff #1
e--x----x---x--x--x----x---x--x--x--x----x---x--x-x-x----
B--x----x---x--x--x----x---x--x--x--x----x---x--x-x-x----
G--x----x---x--x--x----x---x--x--x--x----x---x--x-x-x----
D-14---14--14-14-14---11--11-11-11-11----6---6--6-6-6----
A-14---14--14-14-14---11--11-11-11-11----6---6--6-6-6----
E-12---12--12-12-12----9---9--9--9--9----4---4--4-4-4----
      main jana        dil nun pana      chaan di chani'ni 

e-x-x-x-x----x-x-x-x
B-x-x-x-x----x-x-x-x
G-x-x-x-x----x-x-x-x
D-7-7-7-7----9-9-9-9
A-7-7-7-7----9-9-9-9
E-5-5-5-5----7-7-7-7
 lai chally  jithay naal
riff #1
e--x----x---x--x--x----x---x--x--x--x----x---x--x-x-x----x--x---x--x--x
B--x----x---x--x--x----x---x--x--x--x----x---x--x-x-x----x--x---x--x--x
G--x----x---x--x--x----x---x--x--x--x----x---x--x-x-x----x--x---x--x--x
D-14---14--14-14-14---11--11-11-11-11----6---6--6-6-6----7--7---9--9--x
A-14---14--14-14-14---11--11-11-11-11----6---6--6-6-6----7--7---9--9--x
E-12---12--12-12-12----9---9--9--9--9----4---4--4-4-4----5--5---7--7--x
    main jana jana     dhoolna tu        chaal ni mere   naaaaaaaalll

riff # 3       
e--x--x--x--x---x-x-x-x------x-x-x-x---x-x-x-x
B--x--x--x--x---x-x-x-x------x-x-x-x---x-x-x-x
G--x--x--x--x---x-x-x-x------x-x-x-x---x-x-x-x
D-14-14-14-14---6-6-6-6------7-7-7-7---9-9-9-9
A-14-14-14-14---6-6-6-6------7-7-7-7---9-9-9-9
E-12-12-12-12---4-4-4-4------5-5-5-5---7-7-7-7
   fir pana     jo vi aana , kaun dekhe tera haal,
e--x--x--x--x---x-x-x-x----x-x-x-x---x-x-x-x
B--x--x--x--x---x-x-x-x----x-x-x-x---x-x-x-x
G--x--x--x--x---x-x-x-x----x-x-x-x---x-x-x-x
D-14-14-14-14---6-6-6-6----7-7-7-7---9-9-9-9
A-14-14-14-14---6-6-6-6----7-7-7-7---9-9-9-9
E-12-12-12-12---4-4-4-4----5-5-5-5---7-7-7-7       
 mar jana     rai'jana,ai' lekhan dee ai' chaal   

e-x-x-x-x-x-x-x-x-x-x-x-x-x-x-x-x-x---x
B-x-x-x-x-x-x-x-x-x-x-x-x-x-x-x-x-x---x
G-x-x-x-x-x-x-x-x-x-x-x-x-x-x-x-x-x---x
D-9-9-9-9-9-9-9-9-x-7-7-7-7-7-7-7-7--14
A-9-9-9-9-9-9-9-9-x-7-7-7-7-7-7-7-7--14
E-7-7-7-7-7-7-7-7-x-5-5-5-5-5-5-5-5--12 
[ Tab from: http://www.guitartabs.cc/tabs/n/noori/dobara_phir_se_crd.html ]
solo: (H= hammer)
e--12---11-11---9-9------9---------------------------------------------
B------------------12-12---10--9--9(H)10--9----9-----------------------
G-------------------------------------------11---11--8--9-9-9----------
D----------------------------------------------------------------------
A----------------------------------------------------------------------
E----------------------------------------------------------------------

e----------------------------------------------------------------------
B----------------------------------------------------------------------
G-9-9--11--9-9-9--13--9-9--11--9-9-9--13--9-9--11--9-9-9--13--9-9--8-9-
D----------------------------------------------------------------------
A----------------------------------------------------------------------
E----------------------------------------------------------------------

e----------------------------------------------------------------------
B----------------------------------------------------------------------
G-9-9-9---------9-------------------------------9-9-11--9-9-9--11--9---
D--------9--11-----9--11-11-(slide)-16--9--11-11-----------------------
A----------------------------------------------------------------------
E----------------------------------------------------------------------


e----------------------------------------------------------------------
B----------------------------------------------------------------------
G-11-slide-13-13-13-slide-11-silde-9-h-11--8-h~9-8----8-h-9-9-9--8-h-9
D---------------------------------------------------11-----------------
A----------------------------------------------------------------------
E----------------------------------------------------------------------


riff #2
e--x---x---x---x---x---x----x-..................................
B--x---x---x---x---x---x----x-..................................
G--x---x---x---x---x---x----x-..................................
D-14---x---7---x---9--slide-7-.......keep strumming.............
A-14---x---7---x---9--slide-7-.......keep strumming.............
E-12---x---5---x---7--slide-5-.......keep strumming.............
 wai tu mere val tak lai, sohniyay, mohniyay, sohniyay

riff #2
e--x---x---x---x---x---x----x-..................................
B--x---x---x---x---x---x----x-..................................
G--x---x---x---x---x---x----x-..................................
D-14---x---7---x---9--slide-7-.......keep strumming.............
A-14---x---7---x---9--slide-7-.......keep strumming.............
E-12---x---5---x---7--slide-5-.......keep strumming.............
lakh hove yaar jind na vakh honiyay meree mann mohniyay..

riff #3
e--x--x--x--x---x-x-x-x---x-x-x-x---x-x-x-x
B--x--x--x--x---x-x-x-x---x-x-x-x---x-x-x-x
G--x--x--x--x---x-x-x-x---x-x-x-x---x-x-x-x
D-14-14-14-14---6-6-6-6---7-7-7-7---9-9-9-9
A-14-14-14-14---6-6-6-6---7-7-7-7---9-9-9-9
E-12-12-12-12---4-4-4-4---5-5-5-5---7-7-7-7
chadd saray kheday hunn tu chal ni meray naal,

e--x--x--x--x---x-x-x-x---x-x-x-x---x-x-x-x
B--x--x--x--x---x-x-x-x---x-x-x-x---x-x-x-x
G--x--x--x--x---x-x-x-x---x-x-x-x---x-x-x-x
D-14-14-14-14---6-6-6-6---7-7-7-7---9-9-9-9
A-14-14-14-14---6-6-6-6---7-7-7-7---9-9-9-9
E-12-12-12-12---4-4-4-4---5-5-5-5---7-7-7-7
aaja meray vere sohni chaad de mahiwaaaaaaaal.

Riff #1
e--x----x---x--x--x----x---x--x--x--x----x---x--x-x-x----
B--x----x---x--x--x----x---x--x--x--x----x---x--x-x-x----
G--x----x---x--x--x----x---x--x--x--x----x---x--x-x-x----
D-14---14--14-14-14---11--11-11-11-11----6---6--6-6-6----
A-14---14--14-14-14---11--11-11-11-11----6---6--6-6-6----
E-12---12--12-12-12----9---9--9--9--9----4---4--4-4-4----
      main jana        dil nun pana      chaan di chani'ni 

e-x-x-x-x----x-x-x-x
B-x-x-x-x----x-x-x-x
G-x-x-x-x----x-x-x-x
D-7-7-7-7----9-9-9-9
A-7-7-7-7----9-9-9-9
E-5-5-5-5----7-7-7-7
 lai chally  jithay naal
riff #1
e--x----x---x--x--x----x---x--x--x--x----x---x--x-x-x----x--x---x--x--x
B--x----x---x--x--x----x---x--x--x--x----x---x--x-x-x----x--x---x--x--x
G--x----x---x--x--x----x---x--x--x--x----x---x--x-x-x----x--x---x--x--x
D-14---14--14-14-14---11--11-11-11-11----6---6--6-6-6----7--7---9--9--x
A-14---14--14-14-14---11--11-11-11-11----6---6--6-6-6----7--7---9--9--x
E-12---12--12-12-12----9---9--9--9--9----4---4--4-4-4----5--5---7--7--x
    main jana jana     dhoolna tu        chaal ni mere   naaaaaaaalll

riff # 3       
e--x--x--x--x---x-x-x-x------x-x-x-x---x-x-x-x
B--x--x--x--x---x-x-x-x------x-x-x-x---x-x-x-x
G--x--x--x--x---x-x-x-x------x-x-x-x---x-x-x-x
D-14-14-14-14---6-6-6-6------7-7-7-7---9-9-9-9
A-14-14-14-14---6-6-6-6------7-7-7-7---9-9-9-9
E-12-12-12-12---4-4-4-4------5-5-5-5---7-7-7-7
   fir pana     jo vi aana , kaun dekhe tera haal,
e--x--x--x--x---x-x-x-x----x-x-x-x---x-x-x-x
B--x--x--x--x---x-x-x-x----x-x-x-x---x-x-x-x
G--x--x--x--x---x-x-x-x----x-x-x-x---x-x-x-x
D-14-14-14-14---6-6-6-6----7-7-7-7---9-9-9-9
A-14-14-14-14---6-6-6-6----7-7-7-7---9-9-9-9
E-12-12-12-12---4-4-4-4----5-5-5-5---7-7-7-7       
 mar jana     rai'jana,ai' lekhan dee ai' chaal   



e-x-x-x-x-x-x-x-x-x-x-x-x-x-x-x-x-x
B-x-x-x-x-x-x-x-x-x-x-x-x-x-x-x-x-x
G-x-x-x-x-x-x-x-x-x-x-x-x-x-x-x-x-x
D-9-9-9-9-9-9-9-9-x-7-7-7-7-7-7-7-7
A-9-9-9-9-9-9-9-9-x-7-7-7-7-7-7-7-7
e-7-7-7-7-7-7-7-7-x-5-5-5-5-5-5-5-5 


e-x-x-x-x-x-x-x-x-x-x-x-x-x-x-x-x-x----x
B-x-x-x-x-x-x-x-x-x-x-x-x-x-x-x-x-x----x
G-x-x-x-x-x-x-x-x-x-x-x-x-x-x-x-x-x----x
D-9-9-9-9-9-9-9-9-x-7-7-7-7-7-7-7-7---14
A-9-9-9-9-9-9-9-9-x-7-7-7-7-7-7-7-7---14
E-7-7-7-7-7-7-7-7-x-5-5-5-5-5-5-5-5---12 

***********************************************************************
Comments