Noori - Bol Chords & Tabs

 

Bol Chords & Tabs

Noori Chords & Tabs

Version: 2 Type: Tab 0 ratings
1 star 2 stars 3 stars 4 stars 5 stars
comments

Bol Tab

Song: Bol
Artist: Noori
Album: Suno Kay Mein Hoon Jawan
Tabbed by: Ali Hafeez (necromorphic@hotmail.com)
This tab is completely my own work.

Tuning: Standard (EADGBe)

NOTE: 
Ok so i like this song, and Ali Nadeem hates it. Anyway, i added the
CD time of when each section is played to make more sense of what's
going on...i hoep that helps, i also included timing for the sections
of the solos. I don't know if THAT will help much, its pretty easy 
and there are some mistakes in there. So the tab is pretty complete
there are some parts i can't hear...and there is a second guitar that
joins the first one in the middle run of the solo, i didn't bother trying
to figure it out, not like anyone plays these songs with THAT much
precision...right?

Symbols:
~  - hold
p  - pull off
h  - hammer on
/  - silde up
\  - slide down
m  - palm mute
x  - mute

Fig 1.
(0:00 - 0:57) & (1:40 - 2:22)
|------------------------------------------------------------------|
|-----------2-------------2-----------------2-------------2--------|
|-------4-----4-------4-----4---4-------4-----4-------4-----4---4--|
|-----4---4-----4-------4-----4-------4---4-----4-------4-----4----|
|---2--------------------------------------------------------------|
|-------------------0---------------2---------------4--------------|


Fig 2
(0:57 - 1:40) & (2:22 - 2:37) & (2:52 - 3:05) & (4:11 - end)
|----------------------------------------------------------|
|-------4-------------4-------------4-------------4--------|
|-----4---4-------4-----4---4-----4---4-------4-----4---4--|
|-----------4-------4-----4-------------4-------4-----4----|
|---2------------------------------------------------------|
|---------------0---------------4-----------2--------------|

Fig 3
(1:12 - 1:26) & (2:37 - 2:52) & (3:43 - 4:11)
Guitar 1
|----------------|
|----------------|
|---4------------|
|---4--2--6--4---|
|---2--2--6--4---|
|------0--4--2---|

Guitar 2 (2:37 - 2:52)
|------7--9--7---||
|---7------------||
|----------------||
|----------------||
|----------------||
|----------------||
[ Tab from: http://www.guitartabs.cc/tabs/n/noori/bol_tab_ver_2.html ]
Fig 4
Solo (3:06 - 3:13)
|------------------------------------------------|
|------------------------------------------------|
|---11~-11p9-9~\8-8\6-6\4-6/8~-8p6-6~-4h6/8-6\4~-|
|------------------------------------------------|
|------------------------------------------------|
|------------------------------------------------|

(3:13 - 3:19)
|--------------------------------------------------7-9~--|
|---7~-7/9-------------------------------------7-9-------|
|------6/8-8b9~r8-8\6--xx--4-4--xx--6-6----6-8-----------|
|----------------------xx--4-4--xx--6-6--9---------------|
|--------------------------------------------------------|
|--------------------------------------------------------|

(3:20 - 3:23) yea this part is a little fast...get thru it in 3 seconds
|---7~-9p7----------------------------------------------------------|
|----------9p7-9p7--------------------------------------------------|
|------------------8p6-8p6---------8p6-8p6--------------------------|
|--------------------------9p6-9p6---------9p6-9p6---------9p6-9p6--|
|--------------------------------------------------9p6-9p6----------|
|-------------------------------------------------------------------|

(3:24 - 3:30)
|---------------------------7-9--7-9b11~-9b11-9b11-9b11-7-7-9-7h9p7h9p7h9p7--|
|-----------------------7-9--------------------------------------------------|
|-------------------6-8------------------------------------------------------|
|---------------6-9----------------------------------------------------------|
|---6-4---4-6/9--------------------------------------------------------------|
|-------7--------------------------------------------------------------------|

(3:31 - 3:36)
|---------------------------------------------------------------------------|
|---------------19-19--------------------21-21--------------------19-19-----|
|---16-16-18-18-------18-18--16-16-18-18-------18-18--16-16-18-18-------18--|
|---------------------------------------------------------------------------|
|---------------------------------------------------------------------------|
|---------------------------------------------------------------------------|

(3:36 - 3:43)
|----------------------------------------------|
|------------------------19~-\-----------------|
|---xx-18-18-xx-18-18-xx-----------------------|
|---xx-------xx-------xx-----------------------|
|-------------------------------x-x-2m2m2m2m2--|
|----------------------------------------------|
Comments