Noori - Bol Chords & Tabs

 

Bol Chords & Tabs

Noori Chords & Tabs

Version: 1 Type: Bass Tab 0 ratings
1 star 2 stars 3 stars 4 stars 5 stars
comments

Bol Bass Tab

Its just this loop which starts from start till end of the song......



G|---------------------|
D|---------------------|
A|---------------------|
E|----7---0---2---4----|

G|---------------------|
D|---------------------|
A|---------------------|
E|----7---0---2---4----|
[ Tab from: http://www.guitartabs.cc/tabs/n/noori/bol_btab.html ]
G|---------------------|
D|---------------------|
A|---------------------|
E|----7---0---2---4----|


Alternative:


G|---------------------|
D|---------------------|
A|----2----------------|
E|--------0---2---4----|

G|---------------------|
D|---------------------|
A|----2----------------|
E|--------0---2---4----|

G|---------------------|
D|---------------------|
A|----2----------------|
E|--------0---2---4----|








Usman Khan(Mani).......Sekcmonks@Hotmail.com
Comments