Noone Knows - Lean On Me Chords & Tabs

 

Lean On Me Chords & Tabs

Noone Knows Chords & Tabs

Version: 1 Type: Tab 0 ratings
1 star 2 stars 3 stars 4 stars 5 stars
comments

Lean On Me Tab

---------------------------------------------------------
---------------------------------------------------------
---------------------------------------------------------
--------0-1-3-3----3-2-0--------0-2-2-2-2-0-0------------
-3----3------------------3-3--3--------------------------
---------------------------------------------------------
[ Tab from: http://www.guitartabs.cc/tabs/n/noone_knows/lean_on_me_tab.html ]
---------------------------------------------------------
---------------------------------------------------------
---------------------------------------------------------
------0-2-3-3--3-2-0----------0-2-0-0--------------------
-3--3----------------3-3---3----------3------------------
---------------------------------------------------------

the easiest to follow that i've written yet.
Rakhe, the king.
Comments