Nonskid - Tv Victim Chords & Tabs

 

Tv Victim Chords & Tabs

Nonskid Chords & Tabs

Version: 1 Type: Tab 0 ratings
1 star 2 stars 3 stars 4 stars 5 stars
comments

Tv Victim Tab

-NON-SKID-
(T.V. victim)

e:-----------------------|
B:-----------------------|
G:-----------------------|
D:---------7-------------|
A:---9-9-9-5---5-5-5-7---|
E:---7-7-7-----3-3-3-5---| (x4)

[ Tab from: http://www.guitartabs.cc/tabs/n/nonskid/tv_victim_tab.html ]
e:---------------------------------------------
B:---------------------------------------------
G:---------------------------------------------
D:---------------------------------------------
A:---1-1-1--1-1-1--1-1-1--1--5---7-------------
E:---0-0-0--0-0-0--0-0-0--0--3---5-------------

e:---------------------------------------------
B:---------------------------------------------
G:---------------------------------------------
D:---------------------------------------7-----
A:---1-1-1--1-1-1--1-1-1--1--5---7---9---5---5-
E:---0-0-0--0-0-0--0-0-0--0--3---5---7-------3-



More will come...
Comments