Nonpoint - Mountains Chords & Tabs

 

Mountains Chords & Tabs

Nonpoint Chords & Tabs

Version: 1 Type: Tab 0 ratings
1 star 2 stars 3 stars 4 stars 5 stars
comments

Mountains Tab

   
Band- Nonpoint
Song- Mountains

Tuning: Drop C (C,G,C,F,A,D)

Key:

B = bend
\ = slide down
/ = slide up
< > = natural harmonic
*  = pinch harmonic
x = mute
. = palm mute


intro: great riff
------------------------------------------------------------------------------|
------------------------------------------------------------------------------|
------------------------------------------------------------------------------|
--------------------------------------------------------<7>-------------------|
---------------------------8-------------------------<7>----------------------|
-0-12-0-12\5-0-5b-0-0-5-7------0-12-0-12\5-0-5b-0-0---------------------------|

verse:
------------------------------------------------------------------------------|
------------------------------------------------------------------------------|
---7--14\-12------------------------------------------------------------------|
---7---x\-10--10--10--10--10--------------------------------------------------|
---5--12\-10-------8-------7--------------------------------------------------|
---0----\-10------------------------------------------------------------------|


prechorus: first time is palm muted, the pinch harmonics come in the second time      around

------------------------------------------------------------------------------|
------------------------------------------------------------------------------|
------------------------------------------------------------------------------|
-------10------10----10-------10-------10-----10------10-----10---10------10--|
--------------------------------------------------8-8----8-8----8-----7-7-----|
-12-12----12-12---12----10-10----10-10-----10---------------------------------|
  .  .     .  .    .     .  .     .  .      .     . .    . .    .     . .

----------------|-------------------------------------------------------------|
----------------|-------------------------------------------------------------|
----------------|-----*10-----*10-----*10-------------------------------------|
-----10---10----|-------------------------------------------------------------|
-7-7----7-------|-7-7------7-7------7-----------------------------------------|
----------------|-------------------------------------------------------------|
 . .    .
[ Tab from: http://www.guitartabs.cc/tabs/n/nonpoint/mountains_tab.html ]
chorus:
------------------------------------------------------------------------------|
------------------------------------------------------------------------------|
--7--7\5--5\3--3-2------------------------------------------------------------|
--7--7\5--5\3--3-2------------------------------------------------------------|
--5--5\3--3\1--1-0------------------------------------------------------------|


2:00
------------------------------------------------------------------------------|
------------------------------------------------------------------------------|
------------------------------------------------------------------------------|
------------------------------------------------------------------------------|
------------------------------------------------------------------------------|
-0-12-0-12/5---0-5b-0-0-0-5---------------------------------------------------|

2:18
------------------------------------------------------------------------------|
------------------------------------------------------------------------------|
--7--7\5--5\3--3\2------------------------------------------------------------|
--x--x-x--x-x--x-x------------------------------------------------------------|
--5--5\3--3\1--1\0------------------------------------------------------------|
------------------------------------------------------------------------------|

outro: guitar 1
------------------------------------------------------------------------------|
------------------------------------------------------------------------------|
------------------------------------------------------------------------------|
------------------------------------------------------------------------------|
------------------------------------------------------------------------------|
-0-12-0-12/5---0-5b-0-0-0-5---------------------------------------------------|

outro: guitar 2
------------------------------------------------------------------------------|
------------------------------------------------------------------------------|
--10--10/9----9/7--7/14-------------------------------------------------------|
---x---x-x----x/x--x--x-------------------------------------------------------|
---8---8/7----7/5--5/12-------------------------------------------------------|
------------------------------------------------------------------------------|

outro: guitar 3...comes in at the end with this riff
------------------------------------------------------------------------------|
-10-13-15-13------------------------------------------------------------------|
-------------15--14--14h15p14-------------------------------------------------|
------------------------------------------------------------------------------|
------------------------------------------------------------------------------|
------------------------------------------------------------------------------|
Comments