Nonpoint - In The Air Tonight Chords & Tabs

 

In The Air Tonight Chords & Tabs

Nonpoint Chords & Tabs

Version: 1 Type: Bass Tab 0 ratings
1 star 2 stars 3 stars 4 stars 5 stars
comments

In The Air Tonight Bass Tab

   
Band- Nonpoint
Song- In The Air Tonight

Tuning: Drop C (C G C F)



*I fucked up on the original one for the end part of the chorus, but I 
 fixed it*

Intro - 0:00
Using some sort of effect, most like a chorus effect

F|---------------------------------||
C|-2-2-2-2-2-2-2-2-2-2-2-2-2-2-2-2-||
G|---------------------------------||
C|---------------------------------||

F|---------------------------------||
C|-5-5-5-5-5-5-5-5-5-5-5-5-5-5-5-5-||
G|---------------------------------||
C|---------------------------------||

F|---------------------------------||
C|-0-0-0-0-0-0-0-0-0-0-0-0-0-0-0-0-||
G|---------------------------------||
C|---------------------------------||

F|---------------------------------||
C|-2-2-2-2-2-2-2-2-2-2-2-2-2-2-2-2-||
G|---------------------------------||
C|---------------------------------||

  0:19

F|-------|| ||-------||
C|-------|| ||-------|| 
G|-------|| ||-------||
C|-2~~~--|| ||-0~~~--||

F|-------|| ||-------||
C|-------|| ||-------|| 
G|-------|| ||-------||
C|-2~~~--|| ||-0~~~--||

  0:38

F|-------||<-4X
C|-------|| 
G|-------||
C|-2~~~--||

Verse - 0:48

F|---------------------------------||
C|-2-2-2-2-2-2-2-2-2-2-2-2-2-2-2-2-||_____________
G|---------------------------------||             |
C|---------------------------------||             |
                                                  |
F|---------------------------------||             |
C|-5-5-5-5-5-5-5-5-5-5-5-5-5-5-5-5-||             |
G|---------------------------------||             |
C|---------------------------------||             |
                                          PLAY ALL THIS 2X
F|---------------------------------||             |
C|-0-0-0-0-0-0-0-0-0-0-0-0-0-0-0-0-||             |
G|---------------------------------||             |
C|---------------------------------||             |
                                                  |
F|---------------------------------||             |
C|-2-2-2-2-2-2-2-2-2-2-2-2-2-2-2-2-||_____________|
G|---------------------------------||
C|---------------------------------||

Chorus - 1:26
[ Tab from: http://www.guitartabs.cc/tabs/n/nonpoint/in_the_air_tonight_btab.html ]
F|-----------------------------------------||<-2X
C|-----------------------------------------||
G|----------------5-2-3~~~-3-2-5~-3-2-5/7--||
C|-0-2~~~-/5-0~~~--------------------------||

  1:45

F|-------||<-4X
C|-------|| 
G|-------||
C|-2~~~--||

Verse - 1:55

F|---------------------------------||
C|-2-2-2-2-2-2-2-2-2-2-2-2-2-2-2-2-||
G|---------------------------------||
C|---------------------------------||

F|---------------------------------||
C|-5-5-5-5-5-5-5-5-5-5-5-5-5-5-5-5-||
G|---------------------------------||
C|---------------------------------||

F|---------------------------------||
C|-0-0-0-0-0-0-0-0-0-0-0-0-0-0-0-0-||
G|---------------------------------||
C|---------------------------------||

F|---------------------------------||
C|-2-2-2-2-2-2-2-2-2-2-2-2-2-2-2-2-||
G|---------------------------------||
C|---------------------------------||

F|---------------------------------||
C|---------------------------------||
G|---------------------------------||
C|-2-2-2-2-2-2-2-2-2-2-2-2-2-2-2-2-||

F|---------------------------------||
C|---------------------------------||
G|---------------------------------||
C|-5-5-5-5-5-5-5-5-5-5-5-5-5-5-5-5-||

F|---------------------------------||
C|---------------------------------||
G|---------------------------------||
C|-0-0-0-0-0-0-0-0-0-0-0-0-0-0-0-0-||

F|---------------------------------||
C|---------------------------------||
G|---------------------------------||
C|-2-2-2-2-2-2-2-2-2-2-2-2-2-2-2-2-||

Chorus - 2:33

F|-----------------------------------------||<-4X
C|-----------------------------------------||
G|----------------5-2-3~~~-3-2-5~-3-2-5/7--||
C|-0-2~~~-/5-0~~~--------------------------||

Bridge - 3:12

F|--------------------------------||<-2X
C|--------------------------------||
G|--------------------------------||
C|-2~~~---0~~~---5~~~---7~~~------||

Outro - 3:31

F|---------------------------------||<-8X
C|-2-2-2-2-2-2-2-2-2-2-2-2-2-2-2-2-||
G|---------------------------------||
C|---------------------------------||

  4:10

F|----------------||<-8X
C|-2~~~-----------||
G|----------------||
C|----------------||


Comments