Nonpoint - Get Inside Chords & Tabs

 

Get Inside Chords & Tabs

Nonpoint Chords & Tabs

Version: 1 Type: Tab 0 ratings
1 star 2 stars 3 stars 4 stars 5 stars
comments

Get Inside Tab

   
Band- Nonpoint
Song- Get Inside

Drop D, tuned down 1 full step

Main Riff
E----------------------------|------|
B----------------------------|------|
G----------------------------|------|
D--0-8p7-0-10p8-0-8p7-7---7--|------|
A-----------------------0----|-0-00-|
D------------------(let ring)|-0-00-|
Let the 0 on (A) ring          p.m…

Verse
E-------------------------|----|-----|
B--------------=----------|----|-----|
G-------------------------|----|-----|
D-------------------5h3---|----|--3b-|
A-------0h3---3h5-0-------|--3b|-----|
D-3h5-0-----0-----------0-|----|-----|
p.m………………………….............


Pre-Chorus
E----------------------------------|--------|
B----------------------------------|--------|
G----------------------------------|--------|
D-----------------3-0-5-7-5-0-3-0--|-000000-|
A------0-3-3-5-30------------------|-000000-|
D-3-5------------------------------|-000000-|
                                      p.m…….
This is played VERY fast, and takes a lot of getting used to.

[ Tab from: http://www.guitartabs.cc/tabs/n/nonpoint/get_inside_tab.html ]
Chorus (This is relaxingly easy after that crap!)
E-----------------------------------|-----------*5*--|
B-----------------------------------|----------------|
G-----------------------------------|----------------|
D-3-0--------0---0--1-0-------0---0-|----------------|
A-3-0--------0---0--1-0-------0---0-|----------------|
D----—9\0-x--0-x-0-----—9\0-x-0-x-0-|----3\0-x-------|
*harmonic*

Breakdown
E-------------------------------------------|
B-------------------------------------------|
G-------------------------------------------|
D-0-8-7-0-10-8-0-12-10-0-10-12-0-12-13-12-0-|
A-------------------------------------------|
D-------------------------------------------|
p.m………………………………………………......................
This is the hardest part of the song, it’s too fast to play with just downstrokes, but 
fast enough for alternate picking. It’s your choice….

Breakdown 2
Same as above, just don’t palm mute it.

Heavy/Fun Part
E---------------------------------------------|
B---------------------------------------------|
G---------------------------------------------|
D-0-8-7-0-10-8-0-12-10-0-10-12-0-12-13-12-0---|
A-0-8-7-0-10-8-0-12-10-0-10-12-0-12-13-12-0---|
D-0-8-7-0-10-8-0-12-10-0-10-12-0-12-13-12-0---|
Comments