Nonpoint - Endure Chords & Tabs

 

Endure Chords & Tabs

Nonpoint Chords & Tabs

Version: 4 Type: Tab 0 ratings
1 star 2 stars 3 stars 4 stars 5 stars
comments

Endure Tab

dropped d tuning

endure by nonpoint

Intro

e-----------------|
b-----------------|
g-----------------|
D-----------------|
A-----------------|
D-0---3---5---7---|

Then...

e-----------------|
b-----------------|
g-----------------|
D-5p3-0-----------|
A-5p3-0-----------|
D-5p3-0-----------|

1st Verse

--------------------------------------|
--------------------------------------|
------------------------------7-------|
-----0-------0-------0-------0--0-----|
---0---0---0---0---0---0---0------0---|
-0-------3-------5-------7------------|

Pre-Chorus

e-------------------------------|
b-------------------------------|
g-7-7-7-7-------5-5-5-5---------|
D-----------0-------------3/5---|
A-5-5-5-5---0---3-3-3-3---3/5---|
D-----------0-------------3/5---|

Chorus

e-----------------|
b-----------------|
g-----------------|
D-5p3-0-----------|
A-5p3-0-----------|
D-5p3-0-----------|


2nd Verse
[ Tab from: http://www.guitartabs.cc/tabs/n/nonpoint/endure_tab_ver_4.html ]
--------------------------------------|
--------------------------------------|
------------------------------7-------|
-----0-------0-------0-------0--0-----|
---0---0---0---0---0---0---0------0---|
-0-------3-------5-------7------------|

Then...

e-----------------|
b-----------------|
g-----------------| X2
D-----------------|
A-----------------|
D-0---3---5---7---|

Followed By...

e---------------------------------|
b---------------------------------|
g---------------------------------| X2
D---------------------------------|
A---------------------------------|
D-0-0-0---3-3-3---5-5-5---7-7-7---|
pm...     ...     ...     ...

Pre-Chorus

e-------------------------------|
b-------------------------------|
g-7-7-7-7-------5-5-5-5---------|
D-----------0-------------3/5---|
A-5-5-5-5---0---3-3-3-3---3/5---|
D-----------0-------------3/5---|

Chorus

e---------|
b---------|
g---------|
D-5p3-0---|
A-5p3-0---|
D-5p3-0---|

Bridge-same as chorus except for the whole
kinda crazy solo thing he does that i couldnt figure out.

Chorus

e---------|
b---------|
g---------|
D-5p3-0---|
A-5p3-0---|
D-5p3-0---|

Outro
e---------|
b---------|
g---------|
D-3p1-0---|
A-3p1-0---|
D-3p1-0---|

End with These Last 3 Chords

e---------|
b---------|
g---------|
D-3-1-0---|
A-3-1-0---|
D-3-1-0---|
Comments