Nonpoint - Circles Chords & Tabs

 

Circles Chords & Tabs

Nonpoint Chords & Tabs

Version: 1 Type: Tab 0 ratings
1 star 2 stars 3 stars 4 stars 5 stars
comments

Circles Tab

   
Band- Nonpoint
Song- Circles

Tuning:  drop-C (C,g,C,f,a,d)

Key:

B = bend
\ = slide down
/ = slide up
< > = natural harmonic
*  = pinch harmonic
x = mute
. = palm mute
<< = volume up
~ = let ring
^  = hit multiple times

Intro
D|-<7>-|
A|-<5>-|
F|-----|
C|-----|
G|-----|
C|-----|
   <<<		
      .	     .

Pre-Verse (2x)
D|-------------------------------|-----------------------------------|
A|-----------------------------6-|-----------------------------------|
F|-------------------------------|-------------------------------*9*-|
C|-------------------------7-8---|---------------------------7-8-----|
G|---------------------7-8-------|-----------------------7-8---------|
C|-00000-12\0-0-12\0-0-----------|---00000-12\0-0-12\0-0-------------|


Verse 1	            		
D|--------|---------------------|---------------|
A|--------|-10-10-9-9-10-10-8-8-|-10-9-10-9-10~-|
F|-77-2-2-|---------------------|--x-x--x-x--x--|
C|-00-0-0-|---------------------|--7-6--7-6--7~-|
G|-00-0-0-|---------------------|---------------|
C|-00-0-0-|--------(4x)---------|-----(1x)------|
     . .   ..................... ..........


Pre-Verse (2x)


Chrous (2x)
D|----------------------------------------|
A|----------------------------------------|
F|-14-14-14/15-15\12-12/14-14\10-10-10-10-|
C|--x--x--x--x--x--x--x--x--x--x--x--x--x-|
G|-12-12-12/13-13\10-10/12-12\-8--8--8--8-|
C|----------------------------------------|
[ Tab from: http://www.guitartabs.cc/tabs/n/nonpoint/circles_tab.html ]
D|---------------|
A|---------------|
f|-555555-222222-|
C|-555555-000000-|
g|-333333-000000-|
C|--------000000-|


Post-Chorus
D|------|
A|------|
F|------|
C|------|
G|------|
C|-12/0-|


Pre-Verse (2x)


Verse 2
D|--------|---------------------------------------|
A|--------|---10--10--10--10--9---9---9---9---10~-|
F|-77-2-2-|-7---7---7---7----7---7---7---7-----x--|
C|-00-0-0-|------------------------------------7~-|
G|-00-0-0-|---------------------------------------|
C|-00-0-0-|---------------------------------------|
     . .


Pre-Verse (2x)


Chrous (4x)

Intro
D|-<7>-|
A|-<5>-|
F|-----|
C|-----|
G|-----|
C|-----|
   <<<	

 
Breakdown (2x)
D|-------|---------|
A|-------|---------|
F|-10--7-|-10/12-7-|
C|--x--x-|--x--x-x-|
G|--8--5-|--8/10-5-|
C|-------|---------|
    ^  ^    ^  ^ ^



Interlude
D|-----------------|
A|-----------------|
F|-----------------|
C|-----------------|
G|-----------------|
C|-00000-12-0-12-0-|(4x)


D|---------------|
A|------10--10---|
F|---------------|
C|---------------|
G|---------------|
C|-00000---0---0-|(4x)


Chrous (4x)

Post-Chorus

Pre-Verse (2x)

Outro
D|---------------|
A|---------------|
F|-7-7-----------|
C|-0-0-----------|
G|-0-0-0-0-------|
C|-0-0-0-0-33445-|(2x)
      . .     **

D|---------------|---------------|
A|---------------|---------------|
F|-2-2-----55667-|-2-2-----55667-|
C|-0-0-----------|-0-0-----------|
G|-0-0-0-0-------|-0-0-0-0-------|
C|-0-0-0-0-------|-0-0-0-0-------|
      . .     **      . .  ..... 

D|-------------|
A|-------------|
F|--------7--2-|
C|--------0--0-|
G|--------0--0-|
C|-00000--0--0-|
         .  .
Comments