None The Wiser - Get Me Out Of Here Chords & Tabs

 

Get Me Out Of Here Chords & Tabs

None The Wiser Chords & Tabs

Version: 1 Type: Tab 0 ratings
1 star 2 stars 3 stars 4 stars 5 stars
comments

Get Me Out Of Here Tab

   
-------------------------------------------------------------------------------
			     Get Me Out of Here - None the Wiser
-------------------------------------------------------------------------------
Tabbed by: Elliott
Email: stiflersez@aol.com
Written by: Elliott B. (Guitarist, None the Wiser)

Tuning: Standard

Intro: (palm muted)
e|---------------------------------------------------------------------------|
B|---------------------------------------------------------------------------|
G|---------------------------------------------------------------------------|
D|----------2------------3--------x2-----------------------------------------|
A|--3--3--3------5--5--5---5-----------3-------------------------------------|
E|---------------------------------------------------------------------------|

Un-muted
e|---------------------------------------------------------------------------|
B|---------------------------------------------------------------------------|
G|---------------------------------------------------------------------------|
D|----------2------------3--------x2-----------------------------------------|
A|--3--3--3------5--5--5---5-------------------------------------------------|
E|---------------------------------------------------------------------------|

Verse:
e|---------------------------------------------------------------------------|
B|---------------------------------------------------------------------------|
G|---------------------------------------------------------------------------|
D|------------------2h3h2--------x6------------------------------------------|
A|--3-3-3-3-2-2-2-2-------3--------------------------------------------------|
E|---------------------------------------------------------------------------|

Pre-chorus: (first 3 chords strummed repeatedly)
e|---------------------------------------------------------------------------|
B|---------------------------------------------------------------------------|
G|---------------------------------------------------------------------------|
D|--0----0----0----2h3h2--------x2-------------------------------------------|
A|--3----2----3---------3----------------------------------------------------|
E|---------------------------------------------------------------------------|
[ Tab from: http://www.guitartabs.cc/tabs/n/none_the_wiser/get_me_out_of_here_tab.html ]
Chorus: (chords strummed repeadedly except the last one)
e|---------------------------------------------------------------------------|
B|---------------------------------------------------------------------------|
G|--5----7----5----3----5----7----3----5-------------------------------------|
D|--5----7----5----3----5----7----3----5-------------------------------------|
A|--3----5----3----1----3----5----1----3-------------------------------------|
E|---------------------------------------------------------------------------|

Repeat Verse

Repeat Pre-chorus and Chorus

Bridge: (palm muted- first 3 chords strummed repeatedly)
e|---------------------------------------------------------------------------|
B|---------------------------------------------------------------------------|
G|---------------------------------------------------------------------------|
D|--0----0----0----2-3-2-----------------------------------------------------|
A|--3----2----3----------3---------x4----------------------------------------|
E|---------------------------------------------------------------------------|

Repeat Chorus (x2)

Outro: (palm muted)
e|---------------------------------------------------------------------------|
B|---------------------------------------------------------------------------|
G|---------------------------------------------------------------------------|
D|----------2------------3--------x2-----------------------------------------|
A|--3--3--3------5--5--5---5-----------3-------------------------------------|
E|---------------------------------------------------------------------------|

Lyrics:

Bitchin' and daydreamin' and sittin' alone,
Just another day doin' nothin at home,
Maybe I'll come outside tomorrow,
There might be someone out there but I'll never know.

Standin' at the door,
If I take one step more,
I'll enter a world,
That I have never known.

Chorus:
I wanna leave,
but I don't know,
What would I do?
Where would I go?
It's time to leave,
It's all so clear,
Will somebody please,
Get me the hell out of here.

I am sick of all this "stay here, don't leave shit"
Don't give me any bullshit 'cause I'm tired of it,
I swear to god I'll leave if this life doesn't pay,
This quiet secret life where I've got nothing to say.

Pre-chor. and chor. repeat

(pause)
Bitchin' and daydreamin' and sittin' alone,
(pause)
Just another day doin' nothin' at home,
(pause)

Chorus repeat



| /  slide up
| \  slide down
| h  hammer-on
| p  pull-off
| ~  vibrato
| +  harmonic
| x  Mute note
===============================================================================
Comments