Nokturnl - New Era Chords & Tabs

 

New Era Chords & Tabs

Nokturnl Chords & Tabs

Version: 2 Type: Tab 0 ratings
1 star 2 stars 3 stars 4 stars 5 stars
comments

New Era Tab

New Era

N O K T U R N L

Tabbed by Aaron Bridgeman (rokken@sicness.net)


http://bogans.arecool.net

Key
. = P.M.
* = harmonic

Work out the timing yourself.
                             * *
e|---------------------------------|
B|---------------------------------|
G|-----------------------------5---|
D|---------------------------5-----|
A|-------8-------7-----5-----------|
E|-0-0-0-6-0-0-0-5-0-0-3-0-0-------|
   . . .   . . .   . .   . . * *

Chords for other bit...

e|---------|
B|-7---5---|
G|-7---5---|
D|-7---5---|
A|-5---3---|
E|---------|

and then...
e|-----------------------------|
B|-7-7----6-6----5-5----5-5----|
G|-7-7----6-6----5-5----5-5----|
D|-7-7----6-6----5-5----5-5----|
A|-5-5----4-4----3-3----3-3----|
E|-----------------------------|
[ Tab from: http://www.guitartabs.cc/tabs/n/nokturnl/new_era_tab_ver_2.html ]
LYRICS!!!
My fever is the flava of a new era,
When the world can see and hear much clearer,
This song got my feelin's on a hook now,
It lifts me up and it can't bring you down,
- Chorus.
There is a new time comin and,
I'll get there 1st - coz I'm runnin' man,
I'll always know coz I've seen,
The places I'm goin' and where I've been,
There's no time for us to do the runaround,
This time the sky is really comin down, 
It's never the end and you'll see,
There's nothin your doin' that can affect me,
In this world there's a reason for everything,
There's a lesson to learn from many things,
It's always a struggle to be free,
I keep it real - but that's just me,
Got to show, got to know, got to give it a go,
Coz you know that I never lived my life slow,
As you grow to the powerful force of my flow,
Yeah! Yeah! YEAH! YEAH!! YEAH!!!  

In tha future with our minds eye smashin' down walls,
To what fate from the mothership our species falls?
There's only one other way to keep it alive;
If there's something in our nature that makes us survive!
-Chorus.
Franx vox:
Nguntu nganinya wangkanyi hey, hey, hey!
Nguntu nganinya wangkanyi - kulila  X 2
-Chorus.
Franx vox:
Nguntu nganinya wangkanyi hey, hey, hey!
Nguntu nganinya wangkanyi - kulila   X2.

Comments