Noise Ratchet - A Way To The Heart Chords & Tabs

 

A Way To The Heart Chords & Tabs

Noise Ratchet Chords & Tabs

Version: 1 Type: Tab 0 ratings
1 star 2 stars 3 stars 4 stars 5 stars
comments

A Way To The Heart Tab

   
Artist: 	Noise Ratchet 
Song:		A way to the heart [acoustic]
Album:  	Punk Goes Acoustic
Tabbed by:	Per Karlsson [peer83@hotmail.com]

Tuning:		Standard

Note:		Listen to the song for strumming patterns
                Some chord names may be wrong.. have fun!


INTRO: 	Guitar 1
e|-------------------------------|
B|-------------------------------|
G|--7---5---3---------0--0--0----|
D|--7---5---3-----3----3--3--3---|
A|--5---3---1---1---1---1--1--1--|
E|--5---3---1--------------------|
	Guitar 2
e|--5---3---1-----------5--------|
B|--5---3---1---6---8-6---8-6-5--|
G|--7---5---3-----5--------------|
D|--7---5---3--------------------|
A|-------------------------------|
E|-------------------------------|

VERSE:	
Guitar 1
e|----------------------------------------------------------------------|
B|----------------------------------------------------------------------|
G|--------0--0--0----------0--0--0----------0--0--0----------0--0--0----|
D|----3----3--3--3-----3----3--3--3-----3----3--3--3-----3----3--3--3---|
A|--5---5---5--5--5--3---3---3--3--3--1---1---1--1--1--1---1---1--1--1--|
E|----------------------------------------------------------------------|
	
Guitar2
e|----5---5---5---8---8---8-----------0--------------|
B|---6---6---6---6---6---6----6---6--(5)--6---6---8--|
G|--7---7---7---5---5---5----7---7---7---7---7---9---|
D|--------------------------8---8---8---8---8--10----|
A|---------------------------------------------------|
E|---------------------------------------------------|
[ Tab from: http://www.guitartabs.cc/tabs/n/noise_ratchet/a_way_to_the_heart_tab.html ]
CHORUS: Guitar 1 & 2
    F        B        F        B        F        B        Gm   /  Am  A#m
e|--1--------1--------1--------1--------1--------1--------3-------5---6--|
B|--1--------1--------1--------1--------1--------1--------3-------5---6--|
G|--2--------3--------2--------3--------2--------3--------3-------5---7--|
D|--3--------3--------3--------3--------3--------3--------5-------7---8--|
A|--3--------1--------3--------1--------3--------1--------5-------7---8--|
E|--1--------1--------1--------1--------1--------1--------3-------5---6--|

INTERLUDE [played as VERSE]

VERSE 2: 
Guitar 1 [plays as usual]
	 
Guitar 2
e|--5--------8--------------------|
B|--6--------6--------6--------6--|
G|--7--------5--------7--------7--|
D|--------------------8--------8--|
A|--------------------------------|
E|--------------------------------|

CHORUS

BRIDGE PART 1: 	
Guitar 1 [before girl starts singing]
    F        B        F        B        
e|--1--------1--------1--------1--------|
B|--1-x16----1-x16----1-x16----1-x16----|
G|--2--------3--------2--------3--------|
D|--------------------------------------|
A|--------------------------------------|
E|--------------------------------------|
Guitar 2
e|--------------------------------------|
B|---6--6--6--6--6----6--6-5-6--6--6----|
G|----5--5--5--5--5----5--5------5--5---|
D|--7--7--7--7--7--7-8--8------8--8--8--|
A|--------------------------------------|
E|--------------------------------------|

BRIDGE PART 2:	
Guitar 1 - Strumming
    F        B        F        B       
e|--1--------1--------1--------1--------|
B|--1--------1--------1--------1--------|
G|--2--------3--------2--------3--------|
D|--3--------3--------3--------3--------|
A|--3--------1--------3--------1--------|
E|--1--------1--------1--------1--------|
Guitar 2
e|--5-------(8)-------5-------(8)-------|
B|--6--------6--------6--------6--------|
G|--5--------5--------5--------5--------|
D|--7--------8--------7--------8--------|
A|--------------------------------------|
E|--------------------------------------|

PIANO PART:	
Guitar 1
e|-----------------|
B|--6----13----11--|
G|-----------------|
D|-----------------|
A|-----------------|
E|-----------------|
Guitar 2
    F
e|--1--|
B|--1--|
G|--2--|
D|--3--|
A|--3--|
E|--1--|

END WITH: Guitar 1 & 2
e|--5--|
B|--5--|
G|--7--|
D|--7--|
A|--5--|
E|--5--|
Comments