Nofx - Youre Bleeding Chords & Tabs

 

Youre Bleeding Chords & Tabs

Nofx Chords & Tabs

Version: 1 Type: Tab 0 ratings
1 star 2 stars 3 stars 4 stars 5 stars
comments

Youre Bleeding Tab

Artist: NoFx
Song: You're Bleeding
Tabbed by: Joe L
E-mail: anti_government@hotmail.com 
Tuneing: standard

intro - guitar 1

|-------------------------------------------------|
|-------------------------------------------------|
|-14-14-14-14-13-13-13-13-12-12-12-12-12-12-12-12-|
|--x--x--x--x--x--x--x--x--x--x--x--x--x--x--x--x-|
|-12-12-12-12-11-11-11-11-10-10-10-10-10-10-10-10-|
|-------------------------------------------------|

guitar 2

|-----------------------------------------------------|
|-----------------------------------------------------|
|----5--2-----5--2-----5--2-----5--2-----5--2-----5---|
|-2--5--2--2--5--2--2--5--2--2--5--2--2--5--2--2--5---|
|-2--3--0--2--3--0--2--3--0--2--3--0--2--3--0--2--3---|
|-0--------0--------0--------0--------0--------0------|

pre verse

|---------------------------------|
|---------------------------------|
|-5-5-5-5-------------------------|
|-5-5-5-5-5-5-5-5-7-7-7-7-3-3-3-3-|
|-3-3-3-3-5-5-5-5-7-7-7-7-3-3-3-3-|
|---------3-3-3-3-5-5-5-5-1-1-1-1-|

verse                                   chorus
[ Tab from: http://www.guitartabs.cc/tabs/n/nofx/youre_bleeding_tab.html ]
pm________________________________|     
|---------------------------------|     |-------------------------|
|---------------------------------|     |-------------------------|
|-5-5-5-5-------------------------|     |----5--7--------5--7-----|
|-5-5-5-5-5-5-5-5-7-7-7-7-3-3-3-3-|     |-5--5--7--9--3--5--7--9--|
|-3-3-3-3-5-5-5-5-7-7-7-7-3-3-3-3-|     |-5--3--5--9--3--3--5--9--|
|---------3-3-3-3-5-5-5-5-1-1-1-1-|     |-3--------7--1--------7--|

post chorus

|---------------------------------------------------|
|---------------------------------------------------|
|----3--5-------------------3--5--5-5-5-5--9-9-9-9--|
|-3--3--5--5-5-5--7--9---3--3--5--5-5-5-5--9-9-9-9--|
|-3--1--3--5-5-5--7--9---3--1--3--3-3-3-3--7-7-7-7--|
|-1--------3-3-3--5--7---1--------------------------|

lyrics

you've got the beauty, but that don't mean a thing
a bland reciprocation, but that doesn't bother me
you're happier with lights on underneath a darkened sky
only in the spotlight can you tell me of your crimes
i undestand the situation, but i can't 
seem to understand the motivations you once had
i recall a message i once left behind a screen
i was entranced, when you were never there for me
you're draining, you're draining me, i'm not a tub
what ever happened to the girl i used to hold
i held in such a high regard, where is the girl who had it all?
i used to think i wasn't worthy of your cause, i used to feel so lucky
until the day i felt a weakness in my arms
i knew from where it had been coming
you're bleeding, you're bleeding me, i can recall
the passions you once had where did they go?
i knew a girl who had it all, i knew a girl where did she go?


You're Bleeding



---------------------------------------------------------------------
Comments