Nofx - You Will Lose Faith Acoustic Chords & Tabs

 

You Will Lose Faith Acoustic Chords & Tabs

Nofx Chords & Tabs

Version: 1 Type: Tab

You Will Lose Faith Acoustic Tab

Nofx
you will lose faith
on vinyl

=======================================
intro
---------------------------------------|
---------------------------------------|
--8---9---9---7------------------------|
--8---9---9---7---7--------------------|
--6---7---6---5---7--------------------|
------------------5--------------------|

verse
---------------------------------------|
---------------------------------------|
----9---9---7--------------------------|
----9---9---7---7----------------------|
----7---6---5---7----------------------|
----------------5----------------------|
[ Tab from: http://www.guitartabs.cc/tabs/n/nofx/you_will_lose_faith_acoustic_tab.html ]
was in a bad place.....
-----------------------------------------|
-----------------------------------------|
--9-------7-------5---7-----------5---7--|
--9---3---7---7---5---7---5---2---3---7--|
--7---3---5---7---3---5---5---2---3---5--|
------5-------5-----------3---0----------|


then verse again till

...are the invisible man no one
-----------------------------------------|
-----------------------------------------|
--9-------7-------5---7-----------5---7--|
--9---3---7---7---5---7---5---2---3---7--|
--7---3---5---7---3---5---5---2---3---5--|
------5-------5-----------3---0----------|

then verse again till

where is your god....   last chors
-----------------------------------|
-----------------------------------|
--9---9---8---9-------------8------|
--9---9---8---9-------------8------|
--7---6---6---7-------------6------|
-----------------------------------|


i'm not sure it's my first tab
corrections to longboard.crew@gmx.de
www.bongloard.de.vu