Nofx - Whoops I Odd Chords & Tabs

 

Whoops I Odd Chords & Tabs

Nofx Chords & Tabs

Version: 2 Type: Tab 0 ratings
1 star 2 stars 3 stars 4 stars 5 stars
comments

Whoops I Odd Tab

   
NOFX - Whoops I OD'd. Tabbed By Alasdair Baker (baker__al@hotmail.com).

Heaps of people say that this song is meant to be played on bass,
but if you listen to the recording on the album, its obviously on a guitar.
But heres how it goes anyway, you can change it to bass if you want, i don't care.

Riff A
e-------------------------------------------------|
B-------------------------------------------------|
G-------------------------------------------------|
D--9-10--9-10--9-12-12--5-7-5-7-5-9-9--10-9-7--10-|
A-10-10-10-10-10-10-10--7-7-7-7-7-7-7---0-0-0--10-|
E-----------------------------------------------8-|
[ Tab from: http://www.guitartabs.cc/tabs/n/nofx/whoops_i_odd_tab_ver_2.html ]
Riff A (part 2)
e-------------------|
B-------------------|
G-------------------|
D-5---------------5-| Back to Riff A or Riff B
A-5--10--9-10--9--5-|
E-3--10-10-10-10--3-|

Riff B ("I never meant...")
e----------------------|
B-----------0----------|
G-----------0----------|
D-7--10--5--2--7--10---| 
A-7--10--5--2--7--10---|
E-5---8--3--0--5---8---|

("I got lost in the moment...")
e--------------------|
B--------------------|
G--------------------|
D--9---9---9---9---8-| 
A-10--10--10--10--10-| Back to Riff A (with the start of part 2)
E-12--11--10---9---8-|

Riff C (end)
("Its been real fun...")
e------------3--3--3--3-|
B------------3--3--5--4-|
G------------4--4--5--5-|
D-10--7--10--5--3--5--5-| (let ring).
A-10--7--10--5--5--3--3-|
E--8--5---8--3--3-------|

well thats it, hope you like it. If not then fuck you.
Comments