Nofx - Whoops I Odd Chords & Tabs

 

Whoops I Odd Chords & Tabs

Nofx Chords & Tabs

Version: 1 Type: Bass Tab 0 ratings
1 star 2 stars 3 stars 4 stars 5 stars
comments

Whoops I Odd Bass Tab

TAB by Zuip (www.fluxtexel.com)

This song can be played on bass only, and... Here it is!

INTRO
G|----16--17--19-----|----12--14--16------|----17--16--14-----|---12--------------|
D|----17--17--17-----|----14--14--14------|----14--14--14-----|---10--------------|
A|-------------------|--------------------|-----0---0---0-----|-------------------|
E|-------------------|--------------------|-------------------|-------------------|

  Whoops I OD’d       Shortness of breath  Call ambulance      Tell my wife I
G|----16--17--19-----|----12--14--16------|---17—-16—-14--12--|--12--17--12-------|
D|----17--17--17-----|----14--14--14------|---14--14--14--14--|--12--17--12-------|
A|-------------------|--------------------|----0---0---0------|--10--15--10-------|
E|-------------------|--------------------|-------------------|-------------------|

   Error in judge     ment cut my life     No second chance     No guiding light
G|----12--17--19-----|----12--14--16------|---17—-16—-14--12--|--12--17--12-------|
D|----10--17--17-----|----14--14--14------|---14--14--14--14--|--12--17--12-------|
A|----10-------------|--------------------|----0---0---0------|--10--15--10-------|
E|-------------------|--------------------|-------------------|-------------------|

   I never ment…        I never tought...    I got lost...   
G|--14--17--12--9----|----14--17----------|---16--16--16--16--|---15--------------|
D|--14--17--12--9----|----14--17----------|---14--13--12--11--|---14--------------|
A|--12--15--10--7----|----12--15----------|-------------------|---15--------------|
E|-------------------|--------------------|-------------------|-------------------|
[ Tab from: http://www.guitartabs.cc/tabs/n/nofx/whoops_i_odd_btab.html ]
   6 minutes down       Breathing machine  Brain not feel right  The look on you
G|----16--17--19-----|----12--14--16------|---17—-16—-14--12--|--12--17--12-------|
D|----17--17--17-----|----14--14--14------|---14--14--14--14--|--12--17--12-------|
A|-------------------|--------------------|----0---0---0------|--10--15--10-------|
E|-------------------|--------------------|-------------------|-------------------|

   Is killing me…       But dont feel bad…    Never fear...
G|--14--17--12--9----|----14--17----------|---16--16--16--16--|---15--------------|
D|--14--17--12--9----|----14--17----------|---14--13--12--11--|---14--------------|
A|--12--15--10--7----|----12--15----------|-------------------|---15--------------|
E|-------------------|--------------------|-------------------|-------------------|


G|--12--17--19-------|----12--14--16------|---17--16--14------|---12--------------|
D|--12--17--17-------|----14--14--14------|---14--14--14------|---10--------------|
A|--10---------------|--------------------|----0---0---0------|-------------------|
E|-------------------|--------------------|-------------------|-------------------|

  A year has past       Like photographs     My life is just    A scrapbook of
G|----16--17--19-----|----12--14--16------|---17—-16—-14--12--|--12--17--12-------|
D|----17--17--17-----|----14--14--14------|---14--14--14--14--|--12--17--12-------|
A|-------------------|--------------------|----0---0---0------|--10--15--10-------|
E|-------------------|--------------------|-------------------|-------------------|

  Old friends…            Looks like…       It’s been...       See you…
G|--14--17-----------|--16--16--16--16----|--12--14--12-------|--12--10---9---8---|
D|--14--17-----------|--14--13--12--11----|--10--14--10-------|--12--12--10--10---|
A|--12--15-----------|--------------------|------12-----------|--10--10--10--10---|
E|-------------------|--------------------|-------------------|-----------8---8---|

This is my first tab, I’ll let you know when I’ve got more!!

See you all at Oki Doggs!! :)
Comments