Nofx - Whoa On The Whoas Chords & Tabs

 

Whoa On The Whoas Chords & Tabs

Nofx Chords & Tabs

Version: 1 Type: Tab 0 ratings
1 star 2 stars 3 stars 4 stars 5 stars
comments

Whoa On The Whoas Tab

   
NOFX
Whoa on the Whoa's
45 or 46 Songs That Weren't Good Enough To Go On Our Other Records
Disc 2: Catching Zzz's
Surfer [7"]

Standard Tuning

Intro
e---------------------------|
B---------------------------|
G--7-7-7---7----------------|
D--7-7-7-7-7--5-5-5-5-7-7---|
A--5-5-5-7-5--5-5-5-5-7-7---|
E--------5----3-3-3-3-5-5---|
We never like to say

Main riff
e--------------------------------------------|
B--------------------------------------------|
G------------------------------7------9------|
D--7--8x-----------------------5--8x--7--8x--|
A--5------7--8x--5--8x--7--8x----------------|
E---------5------3------5--------------------|
Whoa's
We hate whoa's
We're against whoa's
We hate whoa's

Repeat intro
We prefer
[ Tab from: http://www.guitartabs.cc/tabs/n/nofx/whoa_on_the_whoas_tab.html ]
   D5  A5  E/A5  G5  E5  Db5 B5
e--------------------------------|
B--------------------------------|
G--7--------9--------------------|
D--7---7----9----5---2---7---4---|
A--5---7----7----5---2---4---2---|
E------5---------3---0-----------|
D5   A5      E/A5     G5
Ahhhhh's and Na na na na na's
           E5        A5      Repeat intro
Of course, yeah yeah yeah's are alright
        G5      A5
Between AFI and the Offspring
D5      Db5           B5     A5      G5   A5
I don't think we need anyone else to sing
        Main riff
Anymore whoa's

End on D

That's it, i think?
Comments