Nofx - Whats The Matter With Parents Today Chords & Tabs

 

Whats The Matter With Parents Today Chords & Tabs

Nofx Chords & Tabs

Version: 1 Type: Tab 0 ratings
1 star 2 stars 3 stars 4 stars 5 stars
comments

Whats The Matter With Parents Today Tab

   
Nofx - Whats The Matter With Parents Today
By:Andrew Mcshan(Guitarguyx182@aol.com)
Intro/Verses:
E-----------------------------------------
b-----------------------------------------
g-555-555-555-555-555-55555-5555555-------
d-777-666-555-444-333-00000-5555555-66666-
a---------------------------3333333-77777-
e-----------------------------------------

E-------------------------------
b-------------------------------
g-5--5--5--5--5--5--5-----------
d-7--6--5--4--3--0--5--6666666--
a-------------------3--7777777--
e-------------------------------

E------------------------------------------------------
b------------------------------------------------------
g--------------------------777777--------777777--------
d-7777-5555-77777-10101010-777777-333333-777777-333333-
a-7777-5555-77777-10101010-555555-333333-555555-333333-
e-5555-3333-55555-8-8-8-8---------111111--------111111-
[ Tab from: http://www.guitartabs.cc/tabs/n/nofx/whats_the_matter_with_parents_today_tab.html ]
E---------------------------------------------------------------
b---------------------------------------------------------------
g-555555555555555555555555555555555555--------------10101010----
d-555555555555555555555555555555555555-55555-777777-10101010----
a-333333333333333333333333333333333333-22222-777777-8-8-8-8-----
e--------------------------------------------555555-------------

"Maybe its just a passing phase.."
E--------------------------------------------
b--------------------------------------------
g-10-10-10-10-10-10-10-10-7-7-7-7-7-7-7-7-5--
d-10-10-10-10-10-10-10-10-7-7-7-7-7-7-7-7-7-- 
a-8--8--8--8--8--8--8--8--5-5-5-5-5-5-5-5----
e--------------------------------------------
mom and dad, how'd you get so rad. when exactly did you get so hip?
wearing teenage clothes, you're always coming to my shows,
and telling me that i should mellow out

it's absurd, you're singing every word
you'Re not suppose to like my band, things i like you don't understand
so please put down that rum and coke, thats no behavior for old folk
can't we just hang on holidays

Dad and mom, what planet are you from
and what convinced you to pack up and leave?
doin drugs and askin me for hugs, whats the matter with parents today?

not again, when will it end?
dad's dressing like motley crue and why is mom's hair died bright blue?
they're staying out 'till 2 or 3 and then having sex publicly
i thought the apple fell far from the tree

mom and dad i think you ought to quit smokin so much pot
and hanging with my friends
laying round, on the couch with my Misfits records out
softly banging your heads

maybe it's just a passing phase
what's the matter with my parents these days??
Comments