Nofx - Whatever Didi Wants Chords & Tabs

 

Whatever Didi Wants Chords & Tabs

Nofx Chords & Tabs

Version: 2 Type: Bass Tab 0 ratings
1 star 2 stars 3 stars 4 stars 5 stars
comments

Whatever Didi Wants Bass Tab

-----------------------------------------------------------------------
                         Whatever Didi Wants - NOFX
-----------------------------------------------------------------------

Intro -
|------------------------------------------|
|------------------------------------------|
|-3--------------------3-------------------|
|-----3---1---3-3-3-3------3---1---3-3-3-3-|

Verse -
|-------------------------------------------|
|-------------------------------------------|
|-3-3-3-3-3-3-------------------------------|
|-------------3-3-3-3-3-1-1-1-1-1-1-3-3-3-3-|
[ Tab from: http://www.guitartabs.cc/tabs/n/nofx/whatever_didi_wants_btab_ver_2.html ]
Pre-Chorus -
|-----------------------------------------------------------------|
|-----------------------------------------------------------------|
|-3-3-3-3-3-3-3-3-------------------------------------------------|
|-----------------3-3-3-3-3-3-3-3-1-1-1-1-1-1-1-1-1-1-1-1-1-1-1-1-|

Chorus (#=x16) -
|------------------------------------------------------------------------|
|------------------------------------------------------------------------|
|------------------------------------------------------------------------|
|-5#-8#-3#-1#------------------------------------------------------------|

Bridge -
|--------------------|
|--------------------|
|-3-----1------------|
|------------1-----1-|



Comments