Nofx - Vanilla Sex Chords & Tabs

 

Vanilla Sex Chords & Tabs

Nofx Chords & Tabs

Version: 1 Type: Tab 0 ratings
1 star 2 stars 3 stars 4 stars 5 stars
comments

Vanilla Sex Tab

   
VANILLA SEX by NOFX. Album: S&M Airlines (1989)                           1/2
A little bit slower slice with nice riffs to play. Use kinda light distortion.
A=Albino   B=Melvin   A&B=both
:
# intro #B X5        *=play 6X              
E---0-0-0-2-------0-0-0-2-------0-0-0-0-------0-0-0-0---|
B---1-1-1-3-------1-1-1-3-------1-1-1-0-------3-3-3-1---|
G---0-0-0-2-------0-0-0-2-------2-2-2-2-------2-2-2-2---|
D---2-2-2-0-------2-2-2-0-------2-2-2-2-------2-2-2-2---|                               
A---3-3-3--*------3-3-3--*------0-0-0-0-------0-0-0-0---|
E--------------------------------------*-------------*--|
:   C     D       C     D       Am    Am9     Am11  Am
:
# bridge #B (Don't try to take away from me...) *=play 8X  #=play 7X
E-------------------------3---|
B-------------------------3---|
G----*--4*---#----5#---#--4---|
D---3---5---2-----7---3---5---|
A---3---5---2-----7---3---5---|
E---1---3---0---3-5---1---3---|
:
# solo #A   b=bend-up to next note
E-----------------------------------------------------------------------|
B-----------------------------------------------------------------------|
G-------------------------------7b9-7b9-7b9-7b9-7b9-7-5-7-5--7b9-5-5----|
D-----------------------------------------------------------------7-7---|
A-----------------------------------------------------------------------|
E-----------------------------------------------------------------------|
# intro2 #B              *=play 6X   #=play 16X                        
E---0-0-0-2-------0-0-0-2-----------------------------------------------|
B---1-1-1-3-------1-1-1-3-----------------------------------------------|
G---0-0-0-2-------0-0-0-2-------2---------------------------------------|
D---2-2-2-0-------2-2-2-0-------2---------------------------------------|                               
A---3-3-3--*------3-3-3--*------0---------------------------------------|
E--------------------------------#--------------------------------------|
:
# verse #A&B X3  *=play 6X   #=play 16X   use left-hand muting
E-----------------------------------|
B----------*-------------*----------|
G---5-5-5-7-------5-5-5-7-------2---|
D---5-5-5-7-------5-5-5-7-------2---|                               
A---3-3-3-5-------3-3-3-5-------0---|
E--------------------------------#--|
:
# bridge2 #A&B   *=play 8X  #=play 7X   Ï=play 6X
E---------------------------------3---|
B---------------------------------3---|
G----*---*---#--------Ï--------Ï--4---|
D---3---5---2-----7--7-----3--3---5---|                         
A---3---5---2-----7--7-----3--3---5---|
E---1---3---0---3-5--5---3-1--1---3---|
:  \___mute__/      \m/      \m/
:
# ALBINO #A  !B plays verse X4!  b=bend-up to next note   h=hammer-on
E------------------------------------------------------------------>
B-------------------5---------------------------------------------->
G---7b9-7b9-7b9-7b9---7-6-5-----5----------5-----5-----5-----5---5->
D---------------------------7-5---7----5h7---5h7---5h7---5h7---7--->
A------------------------------------------------------------------>
E------------------------------------------------------------------>
>ALBINO   k=keep on bending                                     >
>---------------------------------------5-----5---5---5---5---5->
>---------------------------------------5-----5---5---5---5---5->
>-7b9-7k7k7k7k7k7k7k7k-7b9-5-5----5-7b9---7b9---7k--7k--7k--7k-->
>---------------------------7-7--------------------------------->
>--------------------------------------------------------------->
>--------------------------------------------------------------->
>>>>>>>>>>>to next page...
VANILLA SEX                                                               2/2
:
>ALBINO                                                             >
>--------------5---------------------------------------------------->
>-8b10-8b10------8-7-5-----------15b1715b17-151315b17151315b1715b17->
>----------------------7-5-7b9-------------------------------------->
>------------------------------------------------------------------->
>------------------------------------------------------------------->
>------------------------------------------------------------------->
>ALBINO
>---------------15b1715b17---151412--------------|
>-151315b171513--------------------15121515b17---|
>------------------------------------------------|
>------------------------------------------------|
>------------------------------------------------|
>------------------------------------------------|
:
# bridge2 #A&B   *=play 8X  #=play 7X   Ï=play 6X  ()=play 3X
E---------------------------------3---|
B---------------------------------3---|
G----*-(-*---#--------Ï--------Ï)-4---|
D---3--(5---2-----7--7-----3--3-)-5---|                            
A---3--(5---2-----7--7-----3--3-)-5---|
E---1--(3---0---3-5--5---3-1--1-)-3---|
:  \___mute__/      \m/      \m/
:
Then play A&BverseA&B with a little pause. Done!
Tabbed by Jussi Heinonen 30.11.1997.

[ Tab from: http://www.guitartabs.cc/tabs/n/nofx/vanilla_sex_tab.html ]
Comments