Nofx - Total Bummer Chords & Tabs

 

Total Bummer Chords & Tabs

Nofx Chords & Tabs

Version: 1 Type: Bass Tab 0 ratings
1 star 2 stars 3 stars 4 stars 5 stars
comments

Total Bummer Bass Tab

Band : NoFx
Song : Total Bummer
Album: Pump Up The Valuum


A great song, takes the agression out! :D
Intro: 
riff 1: Bass solo
G\-----------------------------|
D\-----------------------------|
A\-0-0--0-3-3--3-5-5--5-7-7--7-|
E\-----------------------------|

with guitars and drums 
Riff 2: 
G\--------------------------------------------------------|
D\--------------------------------------------------------|
A\-0-0--0-3-3--3-5-5--5-7-7--7-3-3--3-5-5--5-7-7--7-3-3--3|
E\--------------------------------------------------------|

riff 3: 
"go away, sunny day..."
G\------------------------------------------------------------------|
D\------------------------------------------------------------------|
A\-0-0--0-0-0--0/12-12--12-12-12--12-3-3--3-10-10--10-8-8--8-7-7--7-|
E\------------------------------------------------------------------|

riff 4:
G\-----------------------------|
D\-----------------------------|
A\-5-5--5-5-5--5-5-5--5/8-8--8-|
E\-----------------------------|
[ Tab from: http://www.guitartabs.cc/tabs/n/nofx/total_bummer_btab.html ]
riff 5:
G\------------------------------------------------------------|
D\------------------------------------------------------------|
A\------------------------------------------------------------|
E\-1-1--1-1-1--1-1-1--1-1-1--1-3-3--3/10-10--10-8-8--8-7-7--7-|

riff 6:
G\---------------------------------|
D\---------5--------2-3-----2------|
A\---0-------3----------------3----|
E\---------------------------------|

riff 7:
D\---------5---------------------------|
G\-----------5----3-2-3-----2----------|
A\---0------------------------3----2---|
E\-------------------------------------|


song progression:
Riff 1 (x2)  Bass solo
Riff 2 (x2)  with guitar and drums 
Riff 3 (x2)
Riff 4 (x2)
Riff 5
Riff 4 (x2)
Riff 5
Riff 3 (x2)
Riff 4 (x2)
Riff 5
Riff 4 (x2)
Riff 5 
Riff 6
Riff 7
Riff 3 (x2)  (during the guitar solo)
Riff 4 (x2)
Riff 5
Riff 4 (x2)
Riff 5

Riff 5 at the end of the song is played like this:
riff 5:
G\------------------------------------------------------------------------|
D\------------------------------------------------------------------------|
A\------------------------------------------------------------0------1/12-|
E\-1-1--1-1-1--1-1-1--1-1-1--1-3-3--3/10-10--10-8-8--8-7-7--7-------------|
actually the difference between riff 5 at the end of the song and riff 5 before
the end of the song is the open string "A" and the strange thing Fat Mike does
when the sound fades out:) nice!:D Enjoy! contact me at paperdoll@abv.bg
Comments