Nofx - Together On The Sand Chords & Tabs

 

Together On The Sand Chords & Tabs

Nofx Chords & Tabs

Version: 2 Type: Tab 0 ratings
1 star 2 stars 3 stars 4 stars 5 stars
comments

Together On The Sand Tab

   
------------------------PLEASE NOTE-----------------------------------
-          tab is very right i got it of a nofx web site.            -
----------------------------------------------------------------------



Artist:Nofx
Song:Together on the Sand
Album(s):Ribbed ,I Heard they Suck Live
Tabbed by: joe l
e-mail:anti_government@hotmail.com
Tuning:standard e b g d a e



# intro #
E---12-14-12--10-12-10--8-10-8----7-9-7-----------7--
B---12--------10--------8--------7------7-------7----
G---12--------10--------8-------7---------7---7------
D-------------------------------------------7--------
A----------------------------------------------------
E----------------------------------------------------
:
# verse # X6
[ Tab from: http://www.guitartabs.cc/tabs/n/nofx/together_on_the_sand_tab_ver_2.html ]
E---5--5---5--5---5-5----4--4---4--4---4--3---2--2---2--2---2-2--->
B---5--5---5--5---5-5----5--5---5--5---5--4---3--3---3--3---3-3--->
G---6--6---6--6---6-6----6--6---6--6---6--5---4--4---4--4---4-4--->
D---7--7---7--7---7-7----6--6---6--6---6--5---4--4---4--4---4-4--->
A---7--7---7--7---7-7----4--4---4--4---4--3---2--2---2--2---2-2--->
E----------------------------------------------------------------->
>verse
>---5--5---5--4--4---4---|
>---6--6---6--5--5---5---|
>---7--7---7--6--6---6---|
>---7--7---7--6--6---6---|
>---5--5---5--4--4---4---|
>------------------------|
:
# outro-part1 #  X3
E---2--2---2--2---2-2----4--4---4--4---4--3---|
B---3--3---3--3---3-3----5--5---5--5---5--4---|
G---4--4---4--4---4-4----6--6---6--6---6--5---|
D---4--4---4--4---4-4----6--6---6--6---6--5---|
A---2--2---2--2---2-2----4--4---4--4---4--3---|
E---------------------------------------------|
:
# outro-part2 #
E---2--2---2--2---2-2----4--4-4--4--4---|
B---3--3---3--3---3-3----5--5-5--5--5---|
G---4--4---4--4---4-4----6--6-6--6--6---|
D---4--4---4--4---4-4----6--6-6--6--6---|
A---2--2---2--2---2-2----4--4-4--4--4---|
E---------------------------------------|
:

Together on the sand
we walked hand and hand
on the beach front
She smiled at me
and she tightly held my hand
I had my finger up in her.....(starhole)

Country music played on the radio, so I turned it off
we walked down to the water
as i fucked your grandmars daughter (thats your momma)
the waves swept us away

what a hoe..
what a hoe..
what a hoe..
what a hoe...
Comments