Nofx - There She Goes Chords & Tabs

 

There She Goes Chords & Tabs

Nofx Chords & Tabs

Version: 1 Type: Tab 0 ratings
1 star 2 stars 3 stars 4 stars 5 stars
comments

There She Goes Tab

Tabbed by:Ian
Hey everyone, i think that NOFX plays this song... its from the soundtrack
of "So i married an Axe Murderer" with Mike Myers... neways, i was too lazy
to actually figure out chords so this is the intro, it's perfect so look no
further... if you find the rest of the song, please send me an email
(zioxe@hotmail.com) and type THERE SHE GOES TAB as the subject cause i get
a lot of junk crap
Thanks, i will delay you no further!
This song is played kind of fast, all of the notes are the same length!

[ Tab from: http://www.guitartabs.cc/tabs/n/nofx/there_she_goes_tab.html ]
e|--3---5---2---3---0---0---0---|----3---5---2---3---0---0---0---------------|
B|3---3---3---3---3---3---3---3-|--3---3---3---3---3---3---3---3-------------|
G|------------------------------|0-------------------------------------------|
D|------------------------------|--------------------------------------------|
A|------------------------------|--------------------------------------------|
E|------------------------------|--------------------------------------------|

e|-----3---5---2---3---0---0---0---|----3---5---2---3---0---0---0--------------|
B|---3---3---3---3---3---3---3---3-|--3---3---3---3---3---3---3---3------------|
G|0--------------------------------|0------------------------------------------|
D|---------------------------------|-------------------------------------------|
A|---------------------------------|-------------------------------------------|
E|---------------------------------|-------------------------------------------|

Simple as that! remember if you find or figure out the full tab of this song,
hook me up please!
Comments