Nofx - Theme From A Nofx Album Chords & Tabs

 

Theme From A Nofx Album Chords & Tabs

Nofx Chords & Tabs

Version: 1 Type: Bass Tab 0 ratings
1 star 2 stars 3 stars 4 stars 5 stars
comments

Theme From A Nofx Album Bass Tab

Band: NOFX
Song: Theme from a NOFX album
Album: Pump up the Valuum

This song is practically just repetition (like all punk)
but the intro is cool as Fat Mike is a genius.

Intro
G:---------------------------------
D:---777-----777-----666---67------
A:---------5-------7-----7---------
E:-5-----5-------5------------555--
[ Tab from: http://www.guitartabs.cc/tabs/n/nofx/theme_from_a_nofx_album_btab.html ]
Verse
G:---------------------------------
D:---------------------------------
A:---------5--------7--------------
E:-5--------------------------5----

Verse Variant (played towards the end of the song in the fast bits)
G:---------------------------------
D:---------------------------------
A:----2-4-5----4-6-7----5-4-2------
E:-5---------------------------5---

Tabbed by Rob Carr
Pump up the Valium is by far the best NOFX album yet so if you don't
have it, get it and if you have any questions or songs you want tabbed,
mail me at dreamweaver@users.basstabarchive.com

Comments