Nofx - The Happy Guy Chords & Tabs

 

The Happy Guy Chords & Tabs

Nofx Chords & Tabs

Version: 1 Type: Bass Tab 0 ratings
1 star 2 stars 3 stars 4 stars 5 stars
comments

The Happy Guy Bass Tab

-------------------------------
the happy guy / nofx
-------------------------------

tabbed by Carlos pino (lupimo@ctcreuna.cl)
 
RIFF #1
G|--------------------- ----------------------|
D|--------------------------------------------|
A|--------------------------------------------|
E |--8--8--8----0--0--0----1--1--1----4--4--4-|

RIFF #2
G|-------------------------------------------------------|
D|-------------------------------------------------------|
A|-------------------------------------------------------|
E |--8--8--8----7----7--7----5--5----3-3----1----1--1--1-|

RIFF #3
G|-------------------------------------------------------|
D|-----------------------------------------slide---------|
A|---------------------------5----5--5-(5)----7----7--7--|
E |--8--8--8----3----3--3--------------------------------|
[ Tab from: http://www.guitartabs.cc/tabs/n/nofx/the_happy_guy_btab.html ]
RIFF #4
G|---------------------------------------------------|
D|---------------------------------------------------|
A|---------------------------------------------------|
E |--8--8--8----3----3--3----6----6--6----1----1--1--|

RIFF #5 
G|--------------------------------------------------------------------------------|
D|--------------------------------------------------------------------------------|
A|--------------------------------------------------------------------------------|
E|--5--5--5----1----1--1----8--8--8----3----3--3----5--5--5----6--6--6----1- 

RIFF #6
G|-----------------------------------------------------------------------------------|
D|-----------------------------------------------------------------------------------|  
A|-----------------------------------------------------------------------------------|
E|--8--8--8----7----7--7----5--5--5----3----3--3----1--1--1----3----3--3----8--8--8--|

order :  1,1,1,1,1, 2,3,2,4,2, 1,1,1,1, 2,3,2,4,2, 5,5 1,1,(1?), 6


Comments