Nofx - The Desperations Gone Chords & Tabs

 

The Desperations Gone Chords & Tabs

Nofx Chords & Tabs

Version: 1 Type: Tab 0 ratings
1 star 2 stars 3 stars 4 stars 5 stars
comments

The Desperations Gone Tab

Email comments to malcolmodell@hotmail.com

Intro
  Repeat                 3rd time
e---------------------|-----------------------------------------------------|
B--------------------*|-----------------------------------------------------|
G-14---12---12---13---|--14---12---12---10----------------------------------|
D---------------------|-----------------------------------------------------|
A-12---10---10---11--*|--12---10---10----8----------------------------------|
E---------------------|-----------------------------------------------------|
[ Tab from: http://www.guitartabs.cc/tabs/n/nofx/the_desperations_gone_tab.html ]
  Repeat
e--------------------------------------------------------------------------|
B-------------------------------------------------------------------------*|
G----------12--10---13---12---10---12---12---14---10--10--13---------5-----|
D-7---10---12-------------------------------------10--10------10--3--5--3--|
A-7---10---10---8---11---10----8---10---10---12----8---8--11--10--3--3--3-*|
E-5----8-------------------------------------------------------8--1-----1--|

e---------------------------------------------------------------------------|
B---------------------------------------------------------------------------|
G-5-----5-----5-------------------------------------------------------------|
D-5--3--5--3--5-------------------------------------------------------------|
A-3--3--3--3--3-------------------------------------------------------------|
E----1-----1----------------------------------------------------------------|
Comments