Nofx - The Decline Chords & Tabs

 

The Decline Chords & Tabs

Nofx Chords & Tabs

Version: 3 Type: Bass Tab 0 ratings
1 star 2 stars 3 stars 4 stars 5 stars
comments

The Decline Bass Tab

This tab is perfect everywhere. please rate. 
[ Tab from: http://www.guitartabs.cc/tabs/n/nofx/the_decline_btab_ver_3.html ]
# intro #                       
G-----9--------------10-------------------------------12-------------|
D---7-7------------1010--------------10-------------1212-------------|
A---0-0-------------8-8------------1010-------------1010---------5\--|
E-----------------------------------8-8------------------------------|
:
# intro2 #       Here it goes...    *=play 4-6X  h=hammer-on        >
G-----9-9--------9-9--------9-9-------5-7-99----9-9--------9-9------>
D-----7-7--------7-7--------7-7-----------77----7-7--------6-6------>
A---0----335-530----335-530----335-530--------0----335-530----335-53>
E--------------------------------------------8---------------------->
>intro2
>---5-------4---------hh|
>---5-------5------h5057| 
>----*-------*----57----|
>-----------------\fast/|
:
# intro3 #       Here it goes...    *=play 4-6X  h=hammer-on        >
G-----9-9--------9-9--------9-9-------5-7-99----9-9--------9-9------>
D-----7-7--------7-7--------7-7-----------77----7-7--------6-6------>
A---0----3-5-3-0----3-5-3-0----3-5-3----------0----3-5-3------3-5-3->
E--------------------------------------------8---------------------->
>intro3
>---55---44----------/-/|
>---55---55---------5656| 
>-----------55----------|
>-----------------------|
:
# 0:39 #     (Where are all...)   *=play 4-6X                 >
G----*-----*-----------------------*-----------*-------------->
D---7-----5------*-----*-----*----3------*----5------*-----*-->
A---------------5-----5----30-----------3-----------3-----3--->
E------------------------------------------------------------->
>                            
>-------------------------------------------------|
>----*----532320-*-----*-----*-----*--------------|
>---2-----------1-----1-----0-----0------*-----*--|
>---------------------------------------1-----1---|
:
# 1:00 # *=play 10-12X                                                  >
G----------------------------------------------------------------------->
D----*-------*-------*-------*-------*-------*-------*-------*-------*-->
A---0-------0-------0-------0-----378-------0------/8-------3------/8--->
E----------------------------------------------------------------------->
>
>------------*----------------------|
>----*------5--------*--------------|
>---3---------------1--------*------|
>---------------------------1-------|
:
# 1:31 #   (Add the bill of rights...)   *=play 6X   #=play 4-6X with pauses
G-|-----------2X---------|-----------#-------------------------------------->
D-|--*-----*-------------|---#------5--------#------3-3-323--#------5-5-535->
A-|-3-----3------*-----*-|--3---------------0---------------3--------------->
E-|-------------1-----4--|-------------------------------------------------->
>
>------------------------|-----------2X-----------|
>------------------------|---*-----------*--------|
>----*-----*-----*-----*-|--0------*--/10------*--|
>---1-----1-----0-----0--|--------1-----------0---|
>>>>>>>to next page...
THE DECLINE                                                               2/5
:
# 2:03 #   (Father...)   *=play 6X   #=play 3X                            >
G----------------*-----*-----------------#-----*-----------------*-----*-->
D----*-----*---/5-----5------#--#--*----3---#-5------*-----*----3-----3--->
A---0-----0-----------------3--2--0--------3--------5-----0--------------->
E------------------------------------------------------------------------->
>
>----------------*-----------*-----*--|
>----*-----*----3------#--#-3-----3---|
>---3-----3-----------3--2------------|
>-------------------------------------|
:
# 2:25 #   (Down by the creek...)   *=play 6X                             >
G------------------------------------------------------------------------->
D----------------------------------------------------*-----*-----*-----*-->
A----*-----*-----*-----*-----*-----*-----*----------0-----0----/8-----8--->
E---5-----5-----1-----1-----3-----3-----5-----543210---------------------->
>
>-------------------------|
>----*-----*-----*-----*--|
>--10----10-----0---/12---|
>-------------------------|
:
# 2:45 #   (Brother where...)   *=play 4-6X   /\=single note (to clarify)    >
G--------10*----------------------5*----------------------------------------->
D----*-10-----10-*-----------*---5-----5-*-----------*-----*-----*----753532->
A---8-----------8----10878753-----------3-----5357875---108----75------------>
E--------------------/\---------------------------------/\------------------->
>
>---------5*-------------------------|
>----*---5-----5-*-------------------|
>---3-----------3-----5357878-8-8----|
>----------------------------8-8-8---|
:
# 3:07 #                                |(second time without last note)
G-|----14|----14|----14|---------------||----16|----16|----16|---------------|
D-|1212--|1111--|1010--|5-----5-----5--||1414--|1313--|1212--|7-----7-----7--|
A-|------|------|------|---5-----5----5||------|------|------|---7-----7----7|
E-|--5X--|--5X--|--5X--|---------------||--5X--|--5X--|--5X--|---------------|
: \_______________4X___________________/\_________________2X_________________/
:
# 3:46 #   h=hammer-on   *=play 3-4X   !without pick if possinle!          >
G------------------------------------------------------------------*------->
D--------1416181614h16/18------1416181614h16/18-16-18-16-14------19---1816->
A-------------------------------------------------------------------------->
E---0---------------------------------------------------------------------->
>                                                                   >
>----*-------------------------------------------------------------->
>--19--1816-------1416181614-----------14------14--14-16-14----14--->
>---------------------------16\14--------161416--16---------16------>
>------------0------------------------------------------------------>
>
>--------------------------|
>--14-1418-181919-181614---|
>--------------------------|
>--------------------------|
:
# 4:11 # X2     *=play 6X   %=pause                                   >
G--------------------------------------------------------------------->
D----------------*-----*-----------*-----*---------------------------->
A----*-----*----2-----0------*----4-----0-----2-----%%%%%%%%%%%%%%%%%->
E---0-----0-----------------0----------------------------------------->
>   |(Twenty-year vacation...)
>------------------------------9--8--------6--4---------------------------| >
>----------*-----------*-----------------------------*-----------*-----*--| >
>----*----4------*----2-----7-----------4-----------0------*----0-----2---| >
>---0-----------2-----------------------------------------0---------------| >
THE DECLINE                                                               3/5
:                                                                           
# 5:08 #   *=play 24X   (Don't think...)
G-------------------------------------------|
D----------------*-----------*-----------*--|
A----*----------5-----------4-----------0---|
E---0---------------------------------------|
:          \/=single notes
# 5:27 #   %=pause   *=play 6X        \/\/\/\/\/                    \/    >
G-------------------------------------1114131113--------------------11---->
D---------------997676---------------9-----------------------------9--7676>
A-----%%%%%%%%%-----------------------------------------*----------------->
E---0-----------------%%%%/12--------------------0055550-----005555------->
>                       \/|(I wish I had a schilling...)
>-----------------------14|-------------2X----------------|-|
>---------------------99--|-------------------------------|-|
>----------*-------------%|--------------------------12---|-|
>---0055550-----005555----|-0-----------------------------|-|
:
# 6:22 #   %=pause   *=play 16X
G---------------------------------------------|
D--------------------------*---------------*--|
A----------*--------------3---------------0---|
E---00%00%0-----------------------------------|
:
# trombone-part #   *=play 8X   #=play 4X         >
G------------------------------------------------->
D----------------*-----*-----*-----*-------------->
A----*-----*----3-----3-----5-----5------*-----*-->
E---0-----0-----------------------------3-----2--->
>trombone-part
>-------#--#--#-----#--#--#--#--#--#--#--------*--|
>----#-5--7--9---#-5--7--5--0--4--5--7------#-4---|
>---7-----------3------------------------#-5------|
>---------------------------------------3---------|
:
# 6:48 # !watch the rhythm!|distortion   *=play 7-8X   /\=single note
G-|----------2X------------|------------2X---------121211--|-|
D-|------------------------|----------*-------*----------9-|-|
A-|-------33-----55--------|---*---223-----335-------------|-|
E-|-00------------------00-|-00--------------------/\/\/\--|-|
:
# 7:17 #   (Serotonin's gone...)   !play all notes 16X palm-muted!
G-------------------------------|
D---------------------------5---|
A---7-------2-------3-----------|
E-------------------------------|
:
# 7:26 # X2   (Sara fled thought...)
G---------------------------|----------|----------|--|
D-------------46764---------|5420/55457|5420/55424|--|
A---7777555544-----433335555|----------|----------|--|
E---------------------------|---END1---|---END2---|--|
:
# 7:49 #   (Ten thousand messages...)   *=play 10-16X
G---|---------------|---------------|---------------|----------->
D------------5-5-------------5------------55--55----------55---->
A---00003333----555500003333-----555000033------5555000033---*-->
E-----------3-3-------------3-333-----------33--------------3--->
>   %=pause
>------------------------------------------------------------|
>------------*-----------------------------------------------|
>----*------5-----%%3332000------------------------------7/\\|
>---0----------------------30---------------0----------------|
:
>>>>>>>to next page...
:
:
THE DECLINE                                                               4/5  
:
# 8:25 # X4    *=play 6-7X                               >
G------------------|-----------------|-----END2--------|->
D------------------|---5-75----5-75--|-------------2055|->
A---3-3-3-2-0-0-0--|7-7-7--77-7-7--77|-----------------|->
E-----------------3|------END1-------|0-0305300-030----|->
>
>--|----/----12----------12----------|------END4-------|
>--|---121414--141214--14--1412141412|-----------------|
>--|---------------------------------|-*-------*-------|
>--|0----------END3-!fast!-----------|0-----/12--------|
:
# 8:41 # X2  (The man that used to speak...)  *=play 10-14X   #=play 4X
G----------------------------------|---------*---------------------|>
D----------------------------------|-*------5--------*-------*-----|>
A---3-------7-------5-------4------|3---------------5-------0------|>
E----------------------------------|--------END1-------------------|>
>
>--|------#--*------------#--------||
>--|-*--/10-5--------*---/9--*-----||
>--|3---------------5-------0------||
>--|-------------------------------||
:
# 9:13 #   *=play 10-14X  #=play 7X|solo                        >
G------------------|------2X-------|----------------------------> 
D----*-------*-----|-*-------------|-*---------------#---#------>
A---3-------7-----5|3--------*----5|3--------*------3---0----*-->
E------------------|--------0------|--------0---------------3--->
>
>-------------------------------|
>----#---#----------------------|
>---3---5----#---#--3332000-----|
>-----------3---0----------30---|
:
# 9:43 # X6 !FUCKIN' FAST!
G-----------------------------------------------------------------151412---|
D------1212-----1214-----------------------1212-----1214-----1212-------14-|
A--1214-----1214-----12141210--10------1214-----1214-----1214--------------|
E-----------------------------------0--------------------------------------|
:
# 10:08 #   (They'll place a wager...)   *=play 12-16X   #=play 3X
G-|------------------------|-------------------------*------------------|-|
D-|--#-----#--#--#--#--#--#|-*-----------*----------5------------*------|-|
A-|-3---#-5--7--3--7--5--5-|3-----------7-----------------------5-------|-|
E-|----3------2X-----------|----------------------2X--------------------|-|
:
Then play trombone-part (!end with first note!).
:
# 11:33 # X2   !second time without last note!
G-|-----4X------|-----------------------|
D-|-------------|-----------------------|                   
A-|-------------|-----------3---5---0---|
E-|-0-------4---|---0-------------------|
:
# 12:38 #   *=play 16X   #=play 6X
G----------------------------------------------|-------*-----*-----*---|----|
D------------------------*-----------*-----*---|-*----4-----0-----2----|-#--|
A---000-------222--555-/0------*----2-----5----|0----------------------|0---|
E--------000------------------0----------------|--------2X-------------|----|
:
# 13:25 # X4  !play all notes 16X!
G-------------------------|
D---------3---------------|
A---5-----------3---------|
E---------------------0---|
:
>>>>>>to next page...
THE DECLINE                                                               5/5
:
# 13:57 #   (...go on with our lives...)   *=play 12X   #=play 6X         >
G----------*-----------------------------------------------------------*-->
D----*----3------*-----------*-----*-----*-----------*-----------*----3--->
A---5-----------3------*----0-----3-----5------*----3------*----0--------->
E---------------------0-----------------------1-----------0--------------->
>
>-------------------#--------*-----*--------------|
>----*-----------#/5---*----3-----5------#--#-----|
>---5------*----3-----0-----------------3--2--0---|
>---------1---------------------------------------|
:
# outro # 14:51   #=play 16X               *=play 8X          >
G-------------|----------------------14X--------------------|->
D----#--------|--------------*-----*-----*-----*------------|->
A---3---------|--*-----*----3-----3-----5-----5------*-----*|->
E-------------|-0-----0-----------------------------3-----2-|->
> |17:01
>-|------------------to-the-end-------------------|
>-|--------------*-----*--------------------------|
>-|--*-----*----5-----5------*-----*-----*-----*--|
>-|-2-----2-----------------0-----0-----5-----4---|
Comments