Nofx - The Brews Chords & Tabs

 

The Brews Chords & Tabs

Nofx Chords & Tabs

Version: 2 Type: Tab 0 ratings
1 star 2 stars 3 stars 4 stars 5 stars
comments

The Brews Tab

NOFX
THE BREWS
STANDARD TUNING
DISTORTION

INTRO/VERSE

e)-------------------------------------------|
B)-------------------------------------------|
G)-------------------------------------------|
D)--4-(x12)-4-(x12)-9-(x6)-8-(x6)-6-(x6)-----|x3
A)--2-------4-------7------6------4----------|
E)----------2--------------------------------|

CHORUS
[ Tab from: http://www.guitartabs.cc/tabs/n/nofx/the_brews_tab_ver_2.html ]
e)------------------------------------------------|
B)------------------------------------------------|
G)------------------------------------------------|
D)--4-(x6)--2-(x12)-4-(x6)-4-(x6)-2-(x12)-4-(x6)--| hit right onto verse/
A)--2-------2-------4------2------2-------4-------| bridge after last 
E)----------0-------2-------------0-------2-------| powerchord

BRIDGE

e)----------| -------------------------------|
B)----------| -------------------------------|
G)----------| -------------------------------|
D)--4-(x12)-| --7-(x6)-----------------------|x4
A)--2-------| --5------7-(x6)-2-(x6)-5-(x6)--|
E)----------| ---------5------0------3-------|

OUTRO CHORUS

e)---------------------------|
B)---------------------------|
G)---------------------------|
D)--5-(x12)--7-(x6)--7-(x6)--|x4
A)--5--------7-------5-------|    between times 2 and 3 there is a pause, 
E)--3--------5---------------|    then it hits on again.
Comments