Nofx - Stickin In My Eye Chords & Tabs

 

Stickin In My Eye Chords & Tabs

Nofx Chords & Tabs

Version: 2 Type: Tab 0 ratings
1 star 2 stars 3 stars 4 stars 5 stars
comments

Stickin In My Eye Tab

Nofx- Sticking in my eye

Tabbed by James Pendle @ www.tabs4idiots.2ya.com
Standard Tuning

Intro
|-----------------------------------------------------------|
|-----------------------------------------------------------|
|-12-12-12-12-12-11-11-11-12-12-12-9-9-9-8------------------| repeat as 
|-12-12-12-12-12-11-11-11-12-12-12-9-9-9-8------------------| necessary
|-10-10-10-10-10--9--9--9-10-10-10-7-7-7-6------------------|
|-----------------------------------------------------------|

Verse (strum these chords)
|----------------------------------------------------------|
|----------------------------------------------------------|
|-9-9-9-9--7-7-7-7--5-5-5-5--4-4-4-4-----------------------| repeat as 
|-9-9-9-9--7-7-7-7--5-5-5-5--4-4-4-4-----------------------| necessary
|-7-7-7-7--5-5-5-5--3-3-3-3--2-2-2-2-----------------------|
|----------------------------------------------------------|
[ Tab from: http://www.guitartabs.cc/tabs/n/nofx/stickin_in_my_eye_tab_ver_2.html ]
Chorus (strum these chords)
|-----------------------------------------------------------|
|-----------------------------------------------------------|
|-----------------------------------------------------------| repeat as
|-2-2-2-2--5-5-5-5--7-7-7-7--4-4-4-4------------------------| necessary
|-2-2-2-2--5-5-5-5--7-7-7-7--4-4-4-4------------------------|
|-0-0-0-0--3-3-3-3--5-5-5-5--2-2-2-2------------------------|

Interlude (^ =down stroke, v =upstroke * =palm mute)
|----------------------------------------------|
|-^-*-*--^--v--v--^--v---^--^-v-^-v------------|
|-9-9-9--12-12-12-12-12-14--5-5-7-7------------|
|-9-9-9--12-12-12-12-12-14--5-5-7-7------------|
|-7-7-7--10-10-10-10-10-12--3-3-5-5------------|
|----------------------------------------------|

After a few cycles of the interlude play this:
|---------------------------------------------------------|
|-----------8---------------------------------------------|
|------7-9---9-7-9----------------------------------------|
|-7-9-----------------xxxxx-9-xxxxx-9-xxxxx-9-xxxxx-9-----|
|---------------------xxxxx-9-xxxxx-9-xxxxx-9-xxxxx-9-----|
|---------------------xxxxx-7-xxxxx-7-xxxxx-7-xxxxx-7-----|

Finish like this:
|--------------------|
|-----------8--------|
|------7-9---9-7-9---|
|-7-9----------------|
|--------------------|
|--------------------|
Comments