Nofx - Stickin In My Eye Chords & Tabs

 

Stickin In My Eye Chords & Tabs

Nofx Chords & Tabs

Version: 1 Type: Tab 1 rating
1 star 2 stars 3 stars 4 stars 5 stars
comments

Stickin In My Eye Tab

#---------------------------------PLEASE NOTE----------------------------------#
#This file is the author's own work and represents their interpretation of the #
#song. You may only use this file for private study, scholarship, or research. #
#------------------------------------------------------------------------------#
#------------Created with Taborama Tab Creator-----www.taborama.com------------#
#------------------------------------------------------------------------------#

Title: Stickin in my eye
Artist: NOFX
Album: Pump up the valum

Instrument: 6 String Guitar

Tabbed by: Héctor Alejandro (chico_punk88@hotmail.com)

COMMENT:
Hi, this song is the 100% correct song, so you better try to figure it out correctly following the rules if not, you´ll be on the same way, so, it´s your decision.....

FIRST OF ALL, YOU NEED TO GET 2 GUITARS, THE INSTRUCTIONS WILL APPEAR RIGHT AWAY IN THE FOLLOWING TABS!!!

INTRO:
Guitar 1:
*NOTES*: this is make it by the bass, but you can try it by guitar but without distorsion, ok?
|------------------------||
|------------------------||
|---9----7----9----5---4-||
|---9----7----9----5---4-||
|-7----5----7----3---2---||     THIS TAB IS PLAYED 6 TIMES!!!
|------------------------||

Guitar 2:
|--------------------||
|--------------------||
|---9----7---5----4--||
|---9----7---5----4--||        THIS IS SLOWLY!!!(hear the song)
|-7----5----3---2----||
|--------------------||
Guitar 1:
|------------------------------------||
|--5--7--8-7---5-7-8-7--5-7-8-7--4-5-||
|------------------------------------||
|------------------------------------||
|------------------------------------||   THIS IS PLAYED 2 TIMES
|------------------------------------||


Guitar 2:
this faster!!

When I look 'round,
I only see outta one eye
As the smoke surrounds my head  (the sauna)
***HERE THE GUITAR 1 JOINS AND PLAY THE SAME AS THE GUITAR 2***
I hear the voices, but I can't make out their words
Saying things, saying things that
|--------------------||
|--------------------||
|---9----7---5----4--||
|---9----7---5----4--||        
|-7----5----3---2----||
|--------------------||



THE CHORUS CAN BE PLAYED BY THE TWO GUITARS BUT FASTER!!!

I(I)(I)(I)got something stickin in my eye (eye) (eye)
Got something stickin in my eye (eye) (eye)
Got something stickin in my eye (eye) (eye)
|----------------------||
|----------------------||
|----------------------||
|-2----5-----7----9----||
|-2----5-----7----9----||       *NOTES*: you might figure it out correct
|-0--3-----5----7------||        and also it is played 2 times!!!




THIS IS PLAYED BY THE GUITAR 1 BUT FASTER!!!
|--------------------------------||
|--------------------------------||
|----9----7----9\5---5-----7-----||
|----9--5----7\3-----5-----7-----||
|--7---------------3-----5-------||
|--------------------------------||
AND WHEN THE GUITAR 1 PLAYS THE --7/9---7/3-- THE GUITAR 2 PLAYS THIS FASTER:
|----------------||
|-----14/9-------||
|--12/7----------||
|----------------||
|----------------||
|----------------||
ALL THAT IS PLAYED 4 TIMES
[ Tab from: http://www.guitartabs.cc/tabs/n/nofx/stickin_in_my_eye_tab.html ]
THEN THE GUITAR 1 PLAYS THIS !!!FASTER!!!:
|------------7-5------||
|------5--7------5-7--||
|--5-7----------------||
|---------------------||
|---------------------||
|---------------------||

Guitar 2:
|----------------||
|----------------||
|----------------||
|-----X7---------||
|-----X7---------||
|-X5-------------||


Guitar 2:
this faster!!

I feel unusual from thinking
About the underground decay, (God help me)
***HERE THE GUITAR 1 JOINS AND PLAY THE SAME AS THE GUITAR 2***
Kill beneath the camera, watch the world begin to cry
It's not from pity, 
it comes from What's been stickin in my eye (eye) (eye)
|--------------------||
|--------------------||
|---9----7---5----4--||
|---9----7---5----4--||        
|-7----5----3---2----||
|--------------------||

THE CHORUS CAN BE PLAYED BY THE TWO GUITARS BUT FASTER!!!

I(I)(I)(I)got something stickin in my eye (eye) (eye)
Got something stickin in my eye (eye) (eye)
Got something stickin in my eye (eye) (eye)
|----------------------||
|----------------------||
|----------------------||
|-2----5-----7----9----||
|-2----5-----7----9----||       *NOTES*: you might figure it out correct
|-0--3-----5----7------||        and also it is played 2 times!!!



IN THE PART WHEN SINGS LIKE THIS!!!
Got something stickin in
Got something stickin in
Got something stickin in my eye.
THE GUITAR 2 PLAYS THIS:
|----------------||
|----------------||
|----------------||
|-----9----------||
|-----9----------||
|---7------------||

Guitar 2:
|--------------------||
|--------------------||
|---9----7---5----4--||
|---9----7---5----4--||        THIS IS SLOWLY!!!(hear the song)
|-7----5----3---2----||
|--------------------||
Guitar 1:
|------------------------------------||
|--5--7--8-7---5-7-8-7--5-7-8-7--4-5-||
|------------------------------------||
|------------------------------------||
|------------------------------------||   THIS IS PLAYED 2 TIMES
|------------------------------------||

THEN YOU TWO GUITARS NEED TO LET RING THE LAST STRING YOU PLAY!!! AND GIVE SOME TIME FOR THE GUITAR 1 TO START WITH THIS:
THIS IS PLAYED BY THE GUITAR 1 BUT FASTER!!!    4 TIMES!!!
|--------------------------------||
|--------------------------------||
|----9----7----9\5---5-----7-----||
|----9--5----7\3-----5-----7-----||
|--7---------------3-----5-------||  
|--------------------------------||  
AND IN THE SECOND TIME AND WHEN THE GUITAR 1 PLAYS THE --7/9---7/3-- THE GUITAR 2 PLAYS THIS FASTER:
|----------------||
|-----14/9-------||
|--12/7----------||
|----------------||
|----------------||
|----------------||
 
THEN THE GUITAR 1 PLAYS THIS !!!FASTER!!!:
|------------7-5------||
|------5--7------5-7--||
|--5-7----------------||
|---------------------||
|---------------------||
|---------------------||

THEN YOU TWO GUITARS NEED TO LET RING THE LAST STRING YOU PLAY!!!
_________________________________________________________________________
/= Slide down 
X= Not playing the strings but with the fingers on it
_________________________________________________________________________

Easy isn´t it???, well it doesn´t looks like right???, but if you hear the song and if you get it by heart, you´ll be playing this like another of the NOFX guys!!! so good look!!! 

to:MyGiRlFrIeNd Alexis
from:He´sBoYfRiEnD Héctor (chico_punk88@hotmail.com)
Comments