Nofx - Stickin In My Eye Chords & Tabs

 

Stickin In My Eye Chords & Tabs

Nofx Chords & Tabs

Version: 2 Type: Chords 0 ratings
1 star 2 stars 3 stars 4 stars 5 stars
comments

Stickin In My Eye Chords

   
   
NOFX - stickin in my eye
rob cross (robertcrossuk@yahoo.co.uk)

these are the proper bass tabs for NOFX'S stickin in my eye
enjoy the milky bars are on me :)

INTRO
G--10---9--10--7--6
D--12--10---8--8--7
A------------------
E------------------

PRE-VERSE
G
D
A--7-7-9-10-9-9 X3 then --6-6-6-6-6-6
E

VERSE
G
D
A--7-7-7-5-5-5-3-3-3-2-2-2-2 X4
E
[ Tab from: http://www.guitartabs.cc/tabs/n/nofx/stickin_in_my_eye_crd_ver_2.html ]
CHORUS
G
D
A
E--0-0-0-0-0-0-0-0-3-3-3-3-3-3-3-3-5-5-5-5-5-5-5-5-8-8-8-8-8-8-8-8

BRIDGE
THERES TWO VERSIONS OF THIS YOU DECIDE WHICH IS RIGHT.

1st
G
D
A--7-7-7-10-10-10-10-12-12-12-3-3-5-5
E

2nd
G
D
A----------------------3-3-5-5
E--0-0-0-3-3-3-3-5-5-5-


I HOPE THESE TABS BRING YOU AS MUCH PLEASUREAS THEY HAVE BROUGHT
ME AND MY DONKEY.
THESE NOFX TABS WERE BROUGHT TO YOU BY ROBERT CROSS
robertcrossuk@yahoo.co.uk
Comments