Nofx - Stickin In My Eye Chords & Tabs

 

Stickin In My Eye Chords & Tabs

Nofx Chords & Tabs

Version: 3 Type: Bass Tab 1 rating
1 star 2 stars 3 stars 4 stars 5 stars
comments

Stickin In My Eye Bass Tab

#-----------------------------PLEASE NOTE-------------------------------------#
#This OLGA file is the author's own work and represents their interpretation  #
#of the song. You may only use this file for private study, scholarship, or   #
#research. Remember to view this file in Courier, or some other monospaced    #
#font. See http://www.olga.net/faq/ for more information.                     #
#-----------------------------------------------------------------------------#

From: "harryburr" 
Subject: n/nofx/stickin_in_my_eye.btab
Date: Sat, 29 Jun 2002 02:52:28 -0700

nofx

stickin in my eye


(intro)
g:--12-121212-1212-1111-11-111112-121212-1212-99-98--|
d:--14-141414-1414--0-0--0--0-010-101010-1010-99-99--|
a:---------------------------------------------------|
e:---------------------------------------------------|


(fast intro)
[ Tab from: http://www.guitartabs.cc/tabs/n/nofx/stickin_in_my_eye_btab_ver_3.html ]
g:---------------|---------------|---------------|-------------|
d:---------------|---------------|---------------|-------------|
a:-7-7-7-777-7-7-|-5-5-5-555-5-5-|-3-3-3-333-3-3-|-2-2-2-2-0---|
e:---------------|---------------|---------------|-----------3-|



(verse)

g:-----------------|-----------------|
d:-----------------|-----------------|
a:-7-7-7-7-5-5-5-5-|-3-3-3-3-2-2-2-2-|
e:-----------------|-----------------|

(chorus)

g:-----------------|-----------------|-----------------|-----------------= |
d:-----------------|-----------------|-----------------|-----------------= |
a:-----------------|-----------------|-----------------|-----------------= |
e:-0-0-0-0-0-0-0-0-|-3-3-3-3-3-3-3-3-|-5-5-5-5-5-5-5-5-|-7-7-7-7-7-7-7-7-= |


(bridge)

g:-------------|
d:-------------|
a:----55557----|
e:-7-7-----5-6-|


g:--------------------------|-----------------|-----------------|
d:-151515-15141414-14131313-|---------7-5-----|-----------------|
a:--------------------------|-----5-7-----5-7-|-------9-------9-|
e:--------------------------|-5-7-------------|-77777---77777---|



That's it you should=20
be able to figure out
the order its not that
hard

Comments