Nofx - Stand By Me Chords & Tabs

 

Stand By Me Chords & Tabs

Nofx Chords & Tabs

Version: 1 Type: Tab 0 ratings
1 star 2 stars 3 stars 4 stars 5 stars
comments

Stand By Me Tab

   
NOFX - Stand By Me
tabbed my Michael "Gloopy" Guelpa
mike.guelpa@gmail.com



(bass intro) (verse also)
e-------------------------|-----------------|------------------------------|----------------------
B-------------------------|-----------------|------------------------------|----------------------
G-------------------------|-----------------|--------8-------------10------|----------------------
D-------------------------|-----------------|-----88---8------1010----10---|----------------------
A-1-x-1-x-x-1-x-1-3-1h3p1-|---------5-4-3-1-|-4s6--------6-6s8-----------8-|--1-x-1-x-x-1-x-1-x-1-
E-------------------------|-3-x-3-1---------|------------------------------|----------------------

(in comes the guitar)
e-------------------------|-x33-------------|----------------------------------------------------
B-3x-3x--xx--3x-3x--------|-x33-x4----------|------------------------------------------back------ 
G-3x-3x--xx--3x-3x--------|-x33-------------|-----8---8--------------10----10----------to--------
D-3x-3x--xx--3x-3x--------|-x33-------------|---8---8---8---8-----10----10----10---10--start----- 
A-1x-1x--xx--1x-1x--------|-----------------|-6-----------6-----8----------------8--------------- 
E-------------------------|-----------------|----------------------------------------------------

back to bass intro/verse x2

(fill on bar 4 1st time)
E-----------------------
B-----------------------
G-3s4-3p1---3s4-3-3p1---
D---------3----------3--
A-----------------------
E-----------------------

(fill on bar 2 second time)
E-x33---------------
B-x33---------------
G-x33---------------
D-x33---------------
A-------------------
E-------------------
[ Tab from: http://www.guitartabs.cc/tabs/n/nofx/stand_by_me_tab.html ]
(fill on bar 3 second time)
E-------------------------
B-x88-x88--x11----------3-       1 = 10
G-x88-x88--x11----------3hold
D-x88-x88--x11----------3-
A-x66-x66--x88----------1-
E-------------------------


Time to Punk it up \o/ - for this just chop up the powerchords with a bit of distortion
but try to keep that ska kind of feel to it missing every other note and then hammering
down on the offbeat.

1= 10
 Bb G Eb F
E--------------------------- 
B-3---8-1-------------------
G-3---8-1-------------------
D-3-5-8-1-------------------
A-1-5-6-8-------------------
E---3-----------------------

                   Bb                      G                          
So Darling Darling Stand By Me, Oh Wont you stand be me,

             Eb               F              Bb
oh won't you stand, won't you stand stand by me    (repeat) 

          Bb            G
When the Night has come. And the Land is Dark
         Eb          F               Bb   
And the moon is the only light we'll see
        Bb                     G        
i won't cry no i won't cry no i won't shed a tear
         Eb         F              Bb
just as long as you f*kin stand by me

                   Bb                      G                          
So Darling Darling Stand By Me, Oh Wont you stand be me, 

             Eb               F              Bb
oh won't you stand, won't you stand stand by me    (repeat)


When the sky, that we look upon
crumbles and falls
and the mountains tumble to the sea.
i wont cry no i wont cry no i wont be afraid
just as long as you f*kin stand by me

Darling Darling......


Do it fletcher (solo)


Darling Darling......             
Comments