Nofx - Six Pack Girls Chords & Tabs

 

Six Pack Girls Chords & Tabs

Nofx Chords & Tabs

Version: 1 Type: Tab 0 ratings
1 star 2 stars 3 stars 4 stars 5 stars
comments

Six Pack Girls Tab

NOFX - Six Pack Girls (Hardcore ass song)
Jeff (nofxhippiekiller@hotmail.com)

NOFX - Six Pack Girls

Listen to the Song to get the strumming patterns
 Intro                 Repeat x4 (Verse)
------------------------------------------------------------
------------------------------------------------------------
------------------------------------------------------------
-9--9-9--9--9-9-9-9-9--9x-12x-7-11-11-11-11-----------------
-7--7-7--7--7-7-7-7-7--7x-10x-5--9--9--9--9-----------------
------------------------------------------------------------
[ Tab from: http://www.guitartabs.cc/tabs/n/nofx/six_pack_girls_tab.html ]
 Repeat x2 (Chorus)   Play 3rd time
------------------------------------------------------------
------------------------------------------------------------
------------------------------------------------------------
-9x-12x-9-9-9-9-9-9---9x-11-11-11-11-11-11-12-12-12-12-12-12
-7x-10x-7-7-7-7-7-7---7x--9--9--9--9--9--9-10-10-10-10-10-10
------------------------------------------------------------

End on this
------------------------------------------------------------
------------------------------------------------------------
------------------------------------------------------------
-9x-12-9-9-9-9----------------------------------------------
-7x-10-7-7-7-7----------------------------------------------
------------------------------------------------------------

Intro
Verse
Chorus
Verse
Chorus

Hey This is my first tab so don't expect to much.
I am sure it is accurate though.
Any Comments e-mail me nofxhippiekiller@hotmail.com
Later
Jeff
Comments