Nofx - Shes Nubs Chords & Tabs

 

Shes Nubs Chords & Tabs

Nofx Chords & Tabs

Version: 1 Type: Bass Tab

Shes Nubs Bass Tab

Band: Nofx
Album: The War on Errorism
Song: She's Nubs

Intro
G|----------------------------------|
D|----------------------------------|
A|--5~--5~-7~-5~--7~~----5~--5~-7~--|
E|----5~--------5~---------5~-------|

Pre Chorus (0:26)
G|-----------------------------------------------|
D|-----------------------------------------------|
A|--5--7--0000000h5-0000000h5-0000000h5-0000000--|
E|-----------------------------------------------|

Chorus x3 (0:33)
G|-------------------------------------------|
D|-------------------------------------------|
A|--5555-0000-5555-0000-5555-0000-77777777---|
E|-------------------------------------------|

G|------------------------------------------|
D|------------------------------------------|
A|--5555-0000-5555-0000-5555-7777-00000000--|
E|------------------------------------------|
[ Tab from: http://www.guitartabs.cc/tabs/n/nofx/shes_nubs_btab.html ]
Bridge (1:08)
G|----------------------------------|
D|----------------------------------|
A|-5#-0#-5#-7#-5#-0#-5555-0000--7#--|
E|----------------------------------|

Chorus x2 (1:20)
G|--------------------------------------------|
D|--------------------------------------------|
A|--5555-0000-5555-0000-5555-0000-77777777----|
E|--------------------------------------------|

G|------------------------------------------|
D|------------------------------------------|
A|--5555-0000-5555-0000-5555-7777-00000000--|
E|------------------------------------------|

On 3rd time (1:43)
G|--------------------------------------|
D|--------------------------------------|
A|--5555-0000-5555-0000-5555-0000-7~----|
E|--------------------------------------|

Outro x1 (1:52)
G|------------------------|
D|------------------------|
A|--5~--5~-7~--5-7-00000--|
E|----5~------------------|